Home » F » Foy Vance »

Foy Vance - Guiding Light Tabs

Artists:  A B C D E F G H I J K L M N O P Q R S T U V W X Y Z # 

Guiding Light Tabs

(ver. 1) Click to play this song!
Foy Vance
CHORDS:
    E11sus2  E11      E7sus4   E4       E9sus4   Esus4    E13sus4
e|--0--------0--------0--------0--------0--------0--------0--------|
A|--0--------0--------0--------0--------0--------0--------0--------|
E|--2--------4--------5--------0--------0--------0--------0--------|
D|--0--------0--------0--------2--------4--------2--------4--------|
A|--0--------0--------0--------0--------0--------2--------4--------|
E|--0--------0--------0--------0--------0--------0--------0--------|


VERSE:
         E11sus2      E11      E7sus4
e|-------0------------0--------0--|
A|-------0------------0--------0--|
E|-------2-----------/4-------/5--|
D|-------0------------0--------0--|
A|-------0------------0--------0--|
E|-------0------------0--------0--|
Well the road is wide,

    E11      E11sus2  E4             E9sus4   E4  
e|--0--------0--------0--------------0--------0--|
A|--0--------0--------0--------------0--------0--|
E|-\4-------\2--------0--------------0--------0--|
D|--0--------0--------2-------------/4-------\2--|
A|--0--------0--------0--------------0--------0--|
E|--0--------0--------0--------------0--------0--|
And waters   run on   either side, 

                        Esus4         E13sus4   Esus4 
e|----------------------0--------------0--------0--|
A|----------------------0--------------0--------0--|
E|----------------------0--------------0--------0--|
D|----------------------2-------------/4-------\2--|
A|----------------------2-------------/4-------\2--|
E|----------------------0--------------0--------0--|
And my shadow went with fading light, 

                 E4             E9sus4   E4  
e|---------------0--------------0--------0--|
A|---------------0--------------0--------0--|
E|---------------0--------------0--------0--|
D|---------------2-------------/4-------\2--|
A|---------------0--------------0--------0--|
E|---------------0--------------0--------0--|
Stretching out towards the night. 

'Cause the Sun is low,
And I yet have still so far to go, 
My lonely heart is beating so, 
Tired of the wonder. 

But there's a sign ahead, 
Though I think it's the same one again, 
And I'm thinking 'bout my only friend, 
And so I find my way home. 

**Before it goes into the chorus play the following**

    E4       E9sus4   E3add4   E4*
e|--0--------0--------0--------0--------|
A|--0--------0--------0--------0--------|
E|--0--------0--------0--------0--------|
D|--2--------4--------6--------7--------|
A|--0--------0--------0--------0--------|
E|--0--------0--------0--------0--------|

**The same chord progression repeats in the chorus, just at a faster pace**

CHORUS:

    E11sus2     E11      E7sus4   E4  
e|--0-----------0--------0--------0--|
A|--0-----------0--------0--------0--|
E|--2-----------4--------5--------0--|
D|--0-----------0--------0--------2--|
A|--0-----------0--------0--------0--|
E|--0-----------0--------0--------0--|
    When I need to       get      home 

          E9sus4   E4       Esus4
e|--------0--------0--------0--|
A|--------0--------0--------0--|
E|--------0--------0--------0--|
D|-------/4-------\2--------2--|
A|--------0--------0--------2--|
E|--------0--------0--------0--|
You're my gui  --  ding     light, 

          E13sus4   Esus4  E4 
e|--------0--------0--------0--|
A|--------0--------0--------0--|
E|--------0--------0--------0--|
D|-------/4-------\2--------2--|
A|-------/4-------\2--------0--|
E|--------0--------0--------0--|
You're my gui  --  ding     light.            
Submit corrections

↑ Back to top | Tablatures and chords for acoustic guitar and electric guitar, ukulele, drums are parodies/interpretations of the original songs. You may use it for private study, scholarship, research or language learning purposes only