Home » F » Foy Vance »

Foy Vance - Gabriel And The Vagabond Tabs

Artists:  A B C D E F G H I J K L M N O P Q R S T U V W X Y Z # 

Gabriel And The Vagabond Tabs

(ver. 1) Click to play this song!
Foy Vance
-------------------------------------------------------------------------------
Gabriel and the Vagabond – Foy Vance
-------------------------------------------------------------------------------

It’s not exactly the same, but it’s really close.

Tuning: EADGBe (It’s actually played in drop D, but it’s easier to play this way and 
sounds good.)

Intro:
e|-----12----9/10------------------------------------------5-----------------|
B|---10---------------10-10h12--------10--10/12--10--8--7------7—5\3p0-----3-|
G|-11-----11-------12-----------12-11-----10/12--11--9--7----7----------2--2-|
D|-0---------------0---------------0--------------------0--------0---------0-|
A|---------------------------------------------------------------------------|
E|---------------------------------------------------------------------------|

Verse:
    Asus     D         A7     Asus D       Bm       A/C#     Dadd9
e|-----0---0h2-------------0----0h2------------------------------5-----------|
B|-3-----3-----3-------2-----2------3----------3--------2--------5-5---------|
G|---2-----------2-------0------------2----4-----4--2-----2----7---7---------|
D|-0---------------0---2--------0-------0----4--------2--------7-------------|
A|-----------------------------------------2--------4--------5---------------|
E|---------------------------------------------------------------------------|

   G      Asus D       F#       Bm   A    G       D6/F#    Em(add9)
e|-----3----0h2------------2-------------------------------------------------|
B|-0-----0------3------2-----2-----3-2-------0--------0----------------------|
G|---0------------2------3--------4---2--0-----0--2-----2--------0-----------|
D|----------0-------0------------4---------0--------0----------4-------------|
A|------------------------------2----0-----------------------2---------------|
E|-3-------------------2-----------------3--------2--------0-----------------|

   G6       A7       Bm     Bm   A     Gadd9   G      Asus D       F#
e|-----0--------0--------2-------------------------3----0h2------------2-----|
B|-0-----0--2-----2--3---------3-2---------0---0-----0------3------2-----2---|
G|---0--------0--------4------4---2-------0-2----0------------2------3-------|
D|----------2----------------4-----2-----0--------------0-------0------------|
A|-2-----------------2------2----0--0---2------------------------------------|
E|-------------------------------------3-------3-------------------2---------|

   Bm   A   G        A7       D
e|-----------------------0----2----------------------------------------------|
B|----3-2-------2----2-----2--3----------------------------------------------|
G|---4---2--0-----0----0------2----------------------------------------------|
D|--4---------0------2--------0----------------------------------------------|
A|-2----0--------------------------------------------------------------------|
E|----------3----------------------------------------------------------------|

Repeat Intro

Verse 2: Same as Verse 1 but end on the A7

Chorus 1:

   D Asus    D/F# G     D       A7    D   D/F# G     D       A7    D  D/F# G
e|-2p0---0-----------x--0h2--x--0--x--0h2---------x--0h2--x--0--x--0h2-------|
B|-3-------3--3---0--x--3----x--2--x--3----3---0--x--3----x--2--x--3---3---0-|
G|-2---2------2---0--x--2----x--0--x--2----2---0--x--2----x--0--x--2---2---0-|
D|-0----------0---0--x--0----x-----x--0----0---0--x--0----x-----x--0---0---0-|
A|-------------------x-------x--0--x--------------x-------x--0--x------------|
E|------------2---3--x-------x-----x-------2---3--x-------x-----x------2---3-|

      D       A7    D   D/F# G     A7     Bm       A        G        A7
e|-x--0h2--x--0--x--0h2---------x--0--x---------------------------------0----|
B|-x--3----x--2--x--3----3---0--x--2--x--3-----3--2-----2------2----2-----2--|
G|-x--2----x--0--x--2----2---0--x--0--x----4--------2------0-----0----0------|
D|-x--0----x-----x--0----0---0--x-----x------4--------2------0---------------|
A|-x-------x--0--x--------------x--0--x--2--------0-----------------0--------|
E|-x-------x-----x-------2---3--x-----x--------------------3-----------------|

   D
e|-2-------------------------------------------------------------------------|
B|-3-------------------------------------------------------------------------|
G|-2-------------------------------------------------------------------------|
D|-0-------------------------------------------------------------------------|
A|---------------------------------------------------------------------------|
E|---------------------------------------------------------------------------|

Repeat Intro

Verse 3: Same as Verse 1 but play the whole chords instead of individual single notes.

Chorus 2: Same as first chorus, but after you go from the G to A7 (right before the Bm A 
A7 D ending of Chorus 1) it goes: Asus(h)D D. Then it repeats this pattern until the 
D/F# G Asus(h)D A7 Asus(h)D. (The (h) means to hammer from the Asus to D.)

There you go. I figured I’d post this because I have only found it once on the internet 
and it was in a forum instead of on a main site. There’s a video tab for the song on 
but I think it’s easier to learn this way. Email me if you have any questions or 
constructive criticism.

And a last special thanks to daleo for posting his version on the forums that led to me 
it, and making my own version of the tab.

| /  slide up
| \  slide down
| h  hammer-on
| p  pull-off
| ~  vibrato
| +  harmonic
| x  Mute note
===============================================================================
            
Submit corrections

↑ Back to top | Tablatures and chords for acoustic guitar and electric guitar, ukulele, drums are parodies/interpretations of the original songs. You may use it for private study, scholarship, research or language learning purposes only