Home » F » Four Tops »

Four Tops - Once Upon A Time Bass

Artists:  A B C D E F G H I J K L M N O P Q R S T U V W X Y Z # 

Once Upon A Time Bass

(ver. 1) Click to play this song!
Four Tops
Tuning: EADG
 
G|------------------------------------------------5---------------|
D|----------------------------------------------------------------| x2
A|3---------------3---------------3-----------------------3-------|
E|----------------------------------------------------------------|
 
0:10
 
G|----------------------------------------------------------------|
D|----------------------------------------------------------------|
A|3-----------3---3---------------3-----------3---3-------2-------|
E|------------------------3---------------------------------------|
 
G|----------------------------------------------------------------|
D|----------------------------------------------------------------|
A|0-----------0---0---------------0-----------0---0---------------|
E|------------------------0-------------------------------0-------|
 
G|------------------------------------------------0---------------|
D|--------------------------------------------------------2-------|
A|--------------------------------3-----------3-------------------|
E|1-----------1---0-------3---------------------------------------|
 
G|----------------------------------------------------------------|
D|3-----------------------------------------------2---0---2---0---|
A|----------------------------------------------------------------|
E|------------1---1-----------1---3-----------3-------------------|
 
G|----------------------------------------------------------------|
D|----------------------------------------------------------------|
A|0-----------0-------------------------------------------0---2---|
E|----------------0-----------0---1-----------1---3---------------|
 
G|----------------------------------------------------------------|
D|----------------------------------------------------------------|
A|3-----------3---3---------------3-----------3---3---------------|
E|------------------------3-------------------------------3-------|
 
0:42
 
G|----------------------------------------------------------------|
D|----------------------------------------------------------------|
A|3-----------3---3---------------3-----------3---3-------2-------|
E|------------------------3---------------------------------------|
 
G|----------------------------------------------------------------|
D|----------------------------------------------------------------|
A|0-----------0---0---------------0-----------0---0---------------|
E|------------------------0-------------------------------0-------|
 
G|------------------------------------------------0---------------|
D|--------------------------------------------------------2-------|
A|--------------------------------3-----------3-------------------|
E|1-----------1---0-------3---------------------------------------|
 
G|----------------------------------------------------------------|
D|3-----------------------------------------------2---0---2---0---|
A|----------------------------------------------------------------|
E|------------1---1-----------1---3-----------3-------------------|
 
G|----------------------------------------------------------------|
D|----------------------------------------------------------------|
A|0-----------0-------------------------------------------0---2---|
E|----------------0-----------0---1-----------1---3---------------|
 
G|--------------------------------------------------------0-------|
D|------------------------------------------------------------2---|
A|3-----------3---3---------------3-----------3---3---------------|
E|------------------------3---------------------------------------|
 
1:13
 
G|----------------------------------------------------------------|
D|0-------------------------------0-------------------------------|
A|----------------3-------------------------------3---------------|
E|----------------------------------------------------------------|
 
G|------------------------2-----------------------0---------------|
D|--------------------------------0-------------------------------|
A|2---------------0-----------------------------------------------|
E|--------0-----------------------------------------------3-------|
 
G|----------------------------------------------------------------|
D|3---------------2---------------3---------------2---------------|
A|----------------------------------------------------------------|
E|----------------------------------------------------------------|
 
G|--------------------------------0-----------0-------------------|
D|----------------0-------------------------------0---------------|
A|0---------------------------------------------------------------|
E|--------------------------------------------------------3-------|
 
1:34
 
G|----------------------------------------------------------------|
D|----------------------------------------------------------------|
A|3-----------3---3---------------3-----------3---3-------2-------|
E|------------------------3---------------------------------------|
 
G|----------------------------------------------------------------|
D|----------------------------------------------------------------|
A|0-----------0---0---------------0-----------0---0---------------|
E|------------------------0-------------------------------0-------|
 
G|------------------------------------------------0---------------|
D|--------------------------------------------------------2-------|
A|--------------------------------3-----------3-------------------|
E|1-----------1---0-------3---------------------------------------|
 
G|----------------------------------------------------------------|
D|3-----------------------------------------------2---0---2---0---|
A|----------------------------------------------------------------|
E|------------1---1-----------1---3-----------3-------------------|
 
G|----------------------|
D|----------------------|
A|0---------------------|
E|------------------1---|
 
 
 
2:06
 
G|------------------------------------------------5---------------|
D|----------------------------------------------------------------|
A|3---------------3---------------3-----------------------3-------|
E|----------------------------------------------------------------|
 
G|------------------------------------------------5---------------------|
D|----------------------------------------------------------------------|
A|3---------------3---------------3-----------------------3---------3---|
E|----------------------------------------------------------------------|
            
Submit corrections

↑ Back to top | Tablatures and chords for acoustic guitar and electric guitar, ukulele, drums are parodies/interpretations of the original songs. You may use it for private study, scholarship, research or language learning purposes only