Home » F » Four Tops »

Four Tops - Cherish Bass

Artists:  A B C D E F G H I J K L M N O P Q R S T U V W X Y Z # 

Cherish Bass

(ver. 1) Click to play this song!
Four Tops
Tuning: EADG
 
G|------------5---------------------------------------7-----------|
D|3-------------------3-------3---------------5---8-------8---5---|
A|------------------------3-------6-------------------------------|
E|----------------------------------------------------------------|
 
G|------------5---------------------------------------7-----------|
D|3-------------------3-------3---------------5---8-------8-------|
A|------------------------3-------6---------------------------6---|
E|----------------------------------------------------------------|
 
0:09
 
G|----------------------------------------------------------------|
D|3-----------3---------------3---------------------------0-------|
A|----------------3---------------3-------------------------------|
E|----------------------------------------------------------------|
 
G|----------------------------------------------------------------|
D|1-----------------------0---------------------------------------|
A|--------------------------------3-----------------------3-------|
E|----------------------------------------------------------------|
 
G|----------------------------------------------------------------|
D|3---------------3---------------------------------------0-------|
A|------------3-------------------3-------------------------------|
E|----------------------------------------------------------------|
 
G|----------------------------------------------------------------|
D|1-----------------------0---------------------------------------|
A|--------------------------------3---------------3-------1-------|
E|----------------------------------------------------------------|
 
0:26
 
G|--------------------2-------2---3-------3-------0---------------|
D|----------------2-------2-------------------3-------0---3-------| x2
A|0-----------3-----------------------------------------------1---|
E|----------------------------------------------------------------|
 
G|--------------------2-------------------------------------------|
D|----------------2-------2---------------------------------------|
A|0---------------------------0---1-------0---------------0-------|
E|------------------------------------------------3---------------|
 
G|----------------------------------------------------------------|
D|----------------------------------------------------------------|
A|1-----------1---1-----------1---1-----------1---1-----------2---|
E|----------------------------------------------------------------|
 
G|----------------------------------------------------------------|
D|----------------------------------------------------------------|
A|3-----------3---3-----------3---3-----------3---3-----------3---|
E|----------------------------------------------------------------|
 
0:48
 
G|----------------------------------------------------------------|
D|3---------------3-----------3---------------------------0-------|
A|------------3-------------------3-------------------------------|
E|----------------------------------------------------------------|
 
G|----------------------------------------------------------------|
D|1-----------------------0---------------------------------------|
A|--------------------------------3-----------------------3-------|
E|----------------------------------------------------------------|
 
G|----------------------------------------------------------------|
D|3---------------3-----------3---------------------------0-------|
A|------------3-------------------3-------------------------------|
E|----------------------------------------------------------------|
 
G|----------------------------------------------------------------|
D|1-----------------------0---------------------------------------|
A|--------------------------------3---------------3-------1-------|
E|----------------------------------------------------------------|
 
1:05
 
G|--------------------2-------2---3-------3-------0---------------|
D|----------------2-------2-------------------3-------0---3-------| x2
A|0-----------3-----------------------------------------------1---|
E|----------------------------------------------------------------|
 
G|--------------------2-------------------------------------------|
D|----------------2-------2---------------------------------------|
A|0---------------------------0---1-------0---------------0-------|
E|------------------------------------------------3---------------|
 
G|----------------------------------------------------------------|
D|----------------------------------------------------------------|
A|1-----------1---1-----------1---1-----------1---1-----------2---|
E|----------------------------------------------------------------|
 
G|----------------------------------------------------------------|
D|----------------------------------------------------------------|
A|3-----------3---3-----------3---3-----------3---3-----------3---|
E|----------------------------------------------------------------|
 
1:26
 
G|----------------------------------------------------------------|
D|----------------------------------------------------------------|
A|--------------------------------3---------------3-------1-------|
E|3---------------------------------------------------------------|
 
G|----------------------------------------------------------------|
D|------------------------0-------2-----------------------0-------|
A|0-----------0---3-----------------------------------------------|
E|----------------------------------------------------------------|
 
G|--------------------------------|
D|----------------0-------2-------|
A|3-----------3-------------------|
E|--------------------------------|
 
G|----------------------------------------------------------------|
D|3---------------0-----------------------------------------------|
A|--------------------------------1---------------1-------0-------|
E|--------------------------------------------1-------------------|
 
G|----------------------------------------------------------------|
D|------------------------3-------1-----------------------0-------|
A|----------------------------------------------------------------|
E|3---------------------------------------------------------------|
 
G|----------------------------------------------------------------|
D|----------------------------------------------------------------|
A|3---------------3-------3-------3---3---3-----------------------|
E|------------3-------3-------3-----------------------------------|
 
1:49
 
G|----------------------------------------------------------------|
D|3-------------------3-------------------------------------------|
A|----------------3-------3-------------------3---3-----------3---|
E|----------------------------------------------------------------|
 
G|----------------------------------------------------------------|
D|--------------------------------0---------------0---------------|
A|3-----------3---3-----------4---------------0-----------3-------|
E|----------------------------------------------------------------|
 
G|----------------------------------------------------------------|
D|------------------------0-------------------------------2-------|
A|1---------------1---------------3---------------3---------------|
E|------------1-------------------------------3-------------------|
 
G|----------------------------------------------------------------|
D|0---------------------------------------------------------------|
A|----------------3-------0---------------------------------------|
E|--------------------------------3-------------------------------|
 
G|----------------------------------------------------------------|
D|1-----------------------0---------------------------------------|
A|--------------------------------3-----------3---3-----------3---|
E|----------------------------------------------------------------|
 
G|----------------------------------------------------------------|
D|0---0---0---0---0---0---0---0---0---0---0-----------------------|
A|----------------------------------------------------------------|
E|----------------------------------------------------------------|
 
2:15
 
G|----------------------------------------------------------------|
D|----------------------------------------------------------------|
A|------------------------2---3-------------------3-----------3---|
E|3-------3-------3---------------------------3-----------3-------|
 
G|----------------------------------------------------------------|
D|----------------------------------------------------------------|
A|1-------------------------------3-------------------------------|
E|----------------------------------------------------------------|
 
G|----------------------------------------------------------------|
D|----------------------------------------------------------------|
A|------------------------0---2---3---------------3-------3---3---|
E|3-------3-------3---3-----------------------3-------------------|
 
G|----------------------------------------------------------------|
D|----------------------------------------------------------------|
A|1-------------------------------3-------------------------------|
E|----------------------------------------------------------------|
 
2:32
 
G|--------------------------------------------0---5---0-----------|
D|----------------0---------------------------------------2-------|
A|2-----------2-----------2-------3---------------------------3---|
E|----------------------------------------------------------------|
 
G|--------------------------------------------0---5---0-----------|
D|----------------0---------------------------------------2-------|
A|2-----------2-----------2-------3-------------------------------|
E|----------------------------------------------------------------|
 
G|--------------------4-------------------------------------------|
D|----------------4-------4---------------------------------------|
A|2-----------2---------------2---3---------------3-------0-------|
E|----------------------------------------------------------------|
 
G|----------------------------------------------------------------|
D|----------------------------------------------------------------|
A|------------------------------------------------0-------3-------|
E|1-----------1---1-----------1---1-----------1-------------------|
 
2:49
 
G|----------------------------------------------------------------|
D|0---------------0---------------0---------------0---------------|
A|------------0---------------0---------------0---------------0---|
E|----------------------------------------------------------------|
 
G|----------------------------------------------------------------|
D|0---------------0---------------0-------------------------------|
A|------------0---------------0--------------0------------3-------|
E|-----------------------------------------------3----------------|
 
G|----------------------------------------------------------------|
D|0---------------0---------------0-------------------------------|
A|------------0---------------0-----------------------------------|
E|----------------------------------------------------------------|
 
G|--------------------------------------------|
D|--------------------------------------------|
A|----------------------------------------1---|
E|--------------------------------------------|
            
Submit corrections

↑ Back to top | Tablatures and chords for acoustic guitar and electric guitar, ukulele, drums are parodies/interpretations of the original songs. You may use it for private study, scholarship, research or language learning purposes only