Home » F » Foundations »

Foundations - Baby Now That Ive Found You Tabs

Artists:  A B C D E F G H I J K L M N O P Q R S T U V W X Y Z # 

Baby Now That Ive Found You Tabs

(ver. 1) Click to play this song!
Foundations
Gtr I (E A D G B E) - 'Horns arr. for Guitar'
Gtr II (E A D G B E) - 'Electric Guitar  '
Gtr III (E A D G B E) - 'Piano arr. for Guitar'


 Intro
  Q=116
      C
 4/4
  Gtr III (Piano arr. for Gtr.)                  Gtrs I (El. Gtr.), III
  E E  Q     Q   E   E   +E  E  Q     Q   Q       E E  Q     Q   E   E
|----------------------|------------------------|----------------------|
|----------------------|------------------------|----------------------|
|------5-----5-------5-|-(5)-5--------7---5-----|------5-----5-------5-|
|-5-7------------7-----|--------7---------------|-5-7------------7-----|
|----------------------|------------------------|----------------------|
|----------------------|------------------------|----------------------|
|
| Gtr II (Horns arr. for Gtr.)
| Q    S S E Q   S S E    Q     S S E Q   S S E   Q    S S E Q   S S E
|----------------------|------------------------|----------------------|
|------8---------8-----|--------8---------8-----|------8---------8-----|
|------9---------9-----|--------9---------9-----|------9---------9-----|
|-----10--------10-----|-------10--------10-----|-----10--------10-----|
|----------------------|------------------------|----------------------|
|----------------------|------------------------|----------------------|


                          Chorus
                       $
        Dm     F              C
  +E  E  Q     Q    Q      H        E E E   E   +W
|--------5-----3-------||-------------------3-|-(3)--------------------|
|--------6-----5-------||o-5--------5-6-5---5-|-(5)--------------------|
|-(5)----7-----5-------||--5--------5-------3-|-(3)--------------------|
|----------------------||--5--------5---------|------------------------|
|----------------------||o--------------------|------------------------|
|----------------------||---------------------|------------------------|
|
|  Q     S E S S E. Q      Q  S S E Q   S S E    Q    S S E Q   S S E
|-------10-----8-------||-----8---------8-----|------------------------|
|-------10-----8-------||o----8---------8-----|-------8---------8------|
|-------10-----9-------||-----9---------9-----|-------9---------9------|
|----------------------||---------------------|------10--------10------|
|----------------------||o--------------------|------------------------|
|----------------------||---------------------|------------------------|


     F                      Fm                    C
  H         E E  E   E   W                     H         E E  E   E
|----------------------|---------------------|--------------------5-|
|-6---------5-6--5---8-|-6-------------------|-5---------5-6--5-----|
|-5---------5----------|-5-------------------|-5---------5----------|
|-7---------7----------|-6-------------------|-5---------5----------|
|----------------------|---------------------|----------------------|
|----------------------|---------------------|----------------------|
|
| Q   S S E Q    S S E   Q   S S E Q   S S E   Q   S S E Q    S S E
|-----8----------8-----|-----8---------8-----|----------------------|
|----10---------10-----|-----9---------9-----|-----8----------8-----|
|----10---------10-----|----10--------10-----|-----9----------9-----|
|----------------------|---------------------|----10---------10-----|
|----------------------|---------------------|----------------------|
|----------------------|---------------------|----------------------|


                                           1.
     D                   Dm                    G
  W                   Q   E   E Q   E   E   Q   E   E Q   E   E
|-------------------|-5---5---------5-----|-----3---------3------||
|-7-----------------|-6---6---------6-----|-----3---------3-----o||
|-7-----------------|-5---5---------5-----|-----4---------4------||
|-------------------|---------------------|----------------------||
|-------------------|---------------------|---------------------o||
|-------------------|---------------------|----------------------||
|
| Q  S S E Q  S S E   Q   S S E Q   S S E   Q   S S E Q   S S E
|-------------------|----10--------10-----|----------------------||
|----7--------7-----|----10--------10-----|----12--------12-----o||
|----7--------7-----|----10--------10-----|----12--------12------||
|----7--------7-----|---------------------|----12--------12------||
|-------------------|---------------------|---------------------o||
|-------------------|---------------------|----------------------||


                        Interlude
  2.
     G                       C
                         Gtr III
  Q   E   E Q   E   E    E E Q     Q  E   E
|-----3---------3-----||--------------------|
|-----3---------3-----||--------------------|
|-----4---------4-----||-----5-----5------5-|
|---------------------||-5-7----------7-----|
|---------------------||--------------------|
|---------------------||--------------------|
|
| Q   S S E Q   S S E    Q   S S E Q  S S E
|---------------------||-----8--------8-----|
|----12--------12-----||-----8--------8-----|
|----12--------12-----||-----9--------9-----|
|----12--------12-----||--------------------|
|---------------------||--------------------|
|---------------------||--------------------|


                            Verse
                  To Coda
        Dm        C             C         F/C          C         F/C
        Gtrs I, III
  +E  E  Q     Q   Q         Q   Q     Q  +E    E   Q   Q     Q   Q
|--------5-----3----------||----------------------|---------------------|
|--------6-----5----------||-5---5-----6--(6)---6-|-5---5-----6---6-----|
|-(5)----7-----5----------||-5---5-----5--(5)---5-|-5---5-----5---5-----|
|-------------------------||-5---5-----7--(7)---7-|-5---5-----7---7-----|
|-------------------------||----------------------|---------------------|
|-------------------------||----------------------|---------------------|
|
|  Q     S S E Q   S S E     Q   S S E Q   S  S E   Q   S S E Q   S S E
|-------10----------------||----------------------|---------------------|
|-------10---------8------||-----8--------10------|-----8--------10-----|
|-------10---------9------||-----9--------10------|-----9--------10-----|
|-----------------10------||----10--------10------|----10--------10-----|
|-------------------------||----------------------|---------------------|
|-------------------------||----------------------|---------------------|


     C        F/C         C        F/C         C         F/C
  Q  Q     Q   Q       Q  Q     Q   Q       Q   Q     Q  +E    E
|--------------------|--------------------|----------------------|
|-5--5-----6---6-----|-5--5-----6---6-----|-5---5-----6--(6)---6-|
|-5--5-----5---5-----|-5--5-----5---5-----|-5---5-----5--(5)---5-|
|-5--5-----7---7-----|-5--5-----7---7-----|-5---5-----7--(7)---7-|
|--------------------|--------------------|----------------------|
|--------------------|--------------------|----------------------|
|
| Q  S S E Q   S S E   Q  S S E Q   S S E   Q   S S E Q   S  S E
|----8---------------|----8---------------|----------------------|
|----8--------10-----|----8--------10-----|-----8--------10------|
|----9--------10-----|----9--------10-----|-----9--------10------|
|-------------10-----|-------------10-----|----10--------10------|
|--------------------|--------------------|----------------------|
|--------------------|--------------------|----------------------|


     C         F/C         C       F/C                    G
  Q   Q     Q   Q       Q  Q     Q      Q    Q   Q     Q   Q
|---------------------|--------------------|---------------------||
|-5---5-----6---6-----|-5--5-----6------6--|-5---5-----5---3-----||
|-5---5-----5---5-----|-5--5-----5------5--|-5---5-----5---4-----||
|-5---5-----7---7-----|-5--5-----7------7--|-7---7-----7---5-----||
|---------------------|--------------------|-8---8-----8---------||
|---------------------|--------------------|---------------------||
|
| Q   S S E Q   S S E   Q  S S E E  S S Q    Q   S S E Q   S S E
|---------------------|----8---------------|--------------10-----||
|-----8--------10-----|----8-------10------|----10--------12-----||
|-----9--------10-----|----9-------10------|-----9--------12-----||
|----10--------10-----|------------10------|----10---------------||
|---------------------|--------------------|---------------------||
|---------------------|--------------------|---------------------||


 Bridge
     A                       G                       A         G
  H         +Q    Q       H         +Q    Q       H         H
|-5---------(5)---5-----|-3---------(3)---3-----|-5---------3---------|
|-5---------(5)---5-----|-3---------(3)---3-----|-5---------3---------|
|-6---------(6)---6-----|-4---------(4)---4-----|-6---------4---------|
|-----------------------|-----------------------|---------------------|
|-----------------------|-----------------------|---------------------|
|-----------------------|-----------------------|---------------------|
|
| Q   S S E  Q    S S E   Q   S S E  Q    S S E   Q   S S E Q   S S E
|-----------------------|-----------------------|---------------------|
|----10----------10-----|----12----------12-----|----10--------12-----|
|-----9-----------9-----|----12----------12-----|-----9--------12-----|
|----11----------11-----|----12----------12-----|----11--------12-----|
|-----------------------|-----------------------|---------------------|
|-----------------------|-----------------------|---------------------|


     A                      G                       Dm
  Q  E   E Q    E  E     H         +Q    E   E   H         Q   Q
|-5--5----------5------|-3---------(3)---3-----|---------------5-----|
|-5--5----------5------|-3---------(3)---3-----|-6---------6---6-----|
|-6--6----------6------|-4---------(4)---4-----|-5---------5---5-----|
|----------------------|-----------------------|-7---------7---------|
|----------------------|-----------------------|---------------------|
|----------------------|-----------------------|---------------------|
|
| Q  S S E E E +E  S S   Q   S S E  Q    S S E   Q   S S E Q   S S E
|----5-----------------|----10----------10-----|----10--------10-----|
|----5-----------------|----12----------12-----|----10--------10-----|
|----6-----------------|----12----------12-----|----10--------10-----|
|------------7-(7)-----|-----------------------|---------------------|
|----------------------|-----------------------|---------------------|
|------------------5---|-----------------------|---------------------|


                                                  Bridge
                                   D.S. al Coda &
     F                                                A
  W                     +Q.       E E  E   E E     H         +Q    Q
|-5-------------------|-(5)---------------------||-5---------(5)---5-----|
|-6-------------------|-(6)---------------------||-5---------(5)---5-----|
|-5-------------------|-(5)------------5---7-5--||-6---------(6)---6-----|
|---------------------|-----------5-7-----------||-----------------------|
|---------------------|-------------------------||-----------------------|
|---------------------|-------------------------||-----------------------|
|
| Q   S S E E  S S Q     Q    S S E E  S S Q       Q   S S E  Q    S S E
|---------------------|-------------------------||-----------------------|
|----10-------10------|------10-------10--------||----10----------10-----|
|----10-------10------|------10-------10--------||-----9-----------9-----|
|----10-------10------|------10-------10--------||----11----------11-----|
|---------------------|-------------------------||-----------------------|
|---------------------|-------------------------||-----------------------|


     G                       A         G           A
  H         +Q    Q       H         H           Q   E   E Q   E   E
|-3---------(3)---3-----|-5---------3---------|-5---5---------5-----|
|-3---------(3)---3-----|-5---------3---------|-5---5---------5-----|
|-4---------(4)---4-----|-6---------4---------|-6---6---------6-----|
|-----------------------|---------------------|---------------------|
|-----------------------|---------------------|---------------------|
|-----------------------|---------------------|---------------------|
|
| Q   S S E  Q    S S E   Q   S S E Q   S S E   Q   S S E Q   S S E
|-----------------------|---------------------|---------------------|
|----12----------12-----|----10--------12-----|----10--------10-----|
|----12----------12-----|-----9--------12-----|-----9---------9-----|
|----12----------12-----|----11--------12-----|----11--------11-----|
|-----------------------|---------------------|---------------------|
|-----------------------|---------------------|---------------------|


     G                       F
  H         +Q    E   E   H         Q   Q       W
|-3---------(3)---3-----|---------------5-----|-5-------------------|
|-3---------(3)---3-----|-6---------6---6-----|-6-------------------|
|-4---------(4)---4-----|-5---------5---5-----|-5-------------------|
|-----------------------|-7---------7---------|---------------------|
|-----------------------|---------------------|---------------------|
|-----------------------|---------------------|---------------------|
|
| Q   S S E  Q    S S E   Q   S S E Q   S S E   Q   S S E Q   S S E
|----10----------10-----|---------------------|---------------------|
|----12----------12-----|----10--------10-----|----10--------10-----|
|----12----------12-----|----10--------10-----|----10--------10-----|
|-----------------------|----10--------10-----|----10--------10-----|
|-----------------------|---------------------|---------------------|
|-----------------------|---------------------|---------------------|


                            Out-Chorus
                                C
  +Q.       E E E  E   E     H        E E E   E   +W
|-(5)--------------------||-------------------3-|-(3)-------------------|
|-(6)--------------------||o-5--------5-6-5---5-|-(5)-------------------|
|-(5)-----------5--7---5-||--5--------5-------3-|-(3)-------------------|
|-----------5-7----------||--5--------5---------|-----------------------|
|------------------------||o--------------------|-----------------------|
|------------------------||---------------------|-----------------------|
|
|  Q    S S E Q    S S E     Q  S S E Q   S S E    Q    S S E Q   S S E
|------------------------||-----8---------8-----|-----------------------|
|------10---------10-----||o----8---------8-----|-------8---------8-----|
|------10---------10-----||-----9---------9-----|-------9---------9-----|
|------10---------10-----||---------------------|------10--------10-----|
|------------------------||o--------------------|-----------------------|
|------------------------||---------------------|-----------------------|


     F                                            C
  H         E E  E   E   W                     H         E E  E   E
|----------------------|---------------------|--------------------5-|
|-6---------5-6--5---8-|-6-------------------|-5---------5-6--5-----|
|-5---------5----------|-5-------------------|-5---------5----------|
|-7---------7----------|-6-------------------|-5---------5----------|
|----------------------|---------------------|----------------------|
|----------------------|---------------------|----------------------|
|
| Q   S S E Q    S S E   Q   S S E Q   S S E   Q   S S E Q    S S E
|-----8----------8-----|-----8---------8-----|----------------------|
|----10---------10-----|-----9---------9-----|-----8----------8-----|
|----10---------10-----|----10--------10-----|-----9----------9-----|
|----------------------|---------------------|----10---------10-----|
|----------------------|---------------------|----------------------|
|----------------------|---------------------|----------------------|


     D                   Dm                    G
  W                   Q   E   E Q   E   E   Q   E   E Q   E   E
|-------------------|-5---5---------5-----|-----3---------3------||
|-7-----------------|-6---6---------6-----|-----3---------3-----o||
|-7-----------------|-5---5---------5-----|-----4---------4------||
|-------------------|---------------------|----------------------||
|-------------------|---------------------|---------------------o||
|-------------------|---------------------|----------------------||
|
| Q  S S E Q  S S E   Q   S S E Q   S S E   Q   S S E Q   S S E
|-------------------|----10--------10-----|----------------------||
|----7--------7-----|----10--------10-----|----12--------12-----o||
|----7--------7-----|----10--------10-----|----12--------12------||
|----7--------7-----|---------------------|----12--------12------||
|-------------------|---------------------|---------------------o||
|-------------------|---------------------|----------------------||

            
Submit corrections

↑ Back to top | Tablatures and chords for acoustic guitar and electric guitar, ukulele, drums are parodies/interpretations of the original songs. You may use it for private study, scholarship, research or language learning purposes only