Home » F » Foundations »

Foundations - All Or Nothing Tabs

Artists:  A B C D E F G H I J K L M N O P Q R S T U V W X Y Z # 

All Or Nothing Tabs

(ver. 1) Click to play this song!
Foundations
 Rating:
4.3/5 (27 votes)
                [Verse 1]
 
e|----------------------------------------------------------------------------------------------------|
B|----------------------------------------------------------------------------------------------------|
G|----------------------------------------------------------------------------------------------------|
D|----------------------------------------------------------------------------------------------------|
A|----------------------------------------------------------------------------------------------------|
E|-0---x-x-x-0--0--0-0-10h12-0--x-x-x-0--0--0-0-7h8-0---x-x-x-0--0--0-0---1-1-1-1---1-1-1-1---1-3-3-3-|
 
e|----------------------------------------------------------------------------------------------------|
B|----------------------------------------------------------------------------------------------------|
G|----------------------------------------------------------------------------------------------------|
D|----------------------------------------------------------------------------------------------------|
A|----------------------------------------------------------------------------------------------------|
E|-0---x-x-x-0--0--0-0-10h12-0--x-x-x-0--0--0-0-7h8-0---x-x-x-0--0--0-0---12-12b-12b-12b---0-8-7------|
 
 
[Pre-Chorus]
 
e|-------------------------------------------------------------------|
B|-------------------------------------------------------------------|
G|-------------------------------------------------------------------|
D|-------------------------------------------------------------------|
A|-------------------------------------------------------------------|
E|-0--0--1--0--0---0--0--1--0--0---0--0--1--0--0--0-0-0-0-12-12-12\--|
 
 
[Verse 2]
 
e|-------------------------------------------------------------|
B|-------------------------------------------------------------|
G|-------------------------------------------------------------|
D|-------------------------------------------------------------|
A|----------------------------------------------------10h12p10-|
E|-13-12--0--0---13-12--0--0---13-12--0--0---0h10h12-0---------|
 
e|---------------------------------------------------------------|
B|---------------------------------------------------------------|
G|---------------------------------------------------------------|
D|---------------------------------------------------------------|
A|---------------------------------------------------------------|
E|-13-12--0--0---13-12--0--0---13-12--0--0---0h8h10-0h7h8p7------| x2
 
e|--------------------------------------------------------------------------|
B|--------------------------------------------------------------------------|
G|--------------------------------------------------------------------------|
D|--------------------------------------------------------------------------|
A|--------------------------------------------------------------------------|
E|-0--1--0--4--3--1--0--1--0--6-5-4-5-0--1--0--4--3--1--0--1--0-0-0-x-x-----|
 
e|--------------------------------------------------------------------------|
B|--------------------------------------------------------------------------|
G|--------------------------------------------------------------------------|
D|--------------------------------------------------------------------------|
A|--------------------------------------------------------------5+-5+---5+--|
E|-0--1--0--4--3--1--0--1--0--6-5-4-5-0--1--0--4--3--1--0--1--0-------0-----|
 
 
[Pre-Chorus 2]
 
e|---------------------------------------------------------------|
B|---------------------------------------------------------------|
G|---------------------------------------------------------------|
D|---------------------------------------------------------------|
A|---------------------------------------------------------------|
E|-0--1--0-------0--1--0-------0--1--0-0--1--0-0--1--0-12-12-12\-|
 
 
[Breakdown]
 
e|-----------------------------------------------------------------------|
B|-----------------------------------------------------------------------|
G|-----------------------------------------------------------------------|
D|-----------------------------------------------------------------------|
A|-----------------------------------------------------------------------|
E|-1-0-0-0-7b--0--7b--0--7b--0--7b---1-1-0-0---7b--0--7b--0-0-0-1-1-3-4--|
 
e|-----------------------------------------------------------------------|
B|-----------------------------------------------------------------------|
G|------------------------------------------------------------------5+---|
D|-----------------------------------------------------------------------|
A|-----------------------------------------------------------------------|
E|-0-1-0---7b--0--7b--0--7b--0--7b---1-1-0-0---7b--0--7b--0-0-0-1-1------|
 
[Second Breakdown]
 
e|-----------------------------------------------------------------------|
B|-----------------------------------------------------------------------|
G|-----------------------------------------------------------------------|
D|-----------------------------------------------------------------------|
A|-----------------------------------------------------------------------|
E|-1-0--0--9+-9+-9+-9+-9+-1-0--0-3-4-1-0--0--9+-9+-9+--0-1-0--6-5-4-5----|
 
e|-----------------------------------------------------------------------|
B|-----------------------------------------------------------------------|
G|-----------------------------------------------------------------------|
D|-----------------------------------------------------------------------|
A|-----------------------------------------------------------------------|
E|-1-0--0--9+-9+-9+-9+-9+-1-0--0-3-4-1-0--0--9+-9+-9+--0-1-0--10-10-10-10|
 
 
[Pre-Chorus 3]
e|-----------------------------------------------------------------------|
B|-----------------------------------------------------------------------|
G|-----------------------------------------------------------------------|
D|-----------------------------------------------------------------------|
A|-----------------------------------------------------------------------|
E|-0--1--0-0--1--0-0--1--0-12-12-13-13-0--1--0-0--1--0-0--1--0-12-12-12\-|
            
Submit corrections

↑ Back to top | Tablatures and chords for acoustic guitar and electric guitar, ukulele, drums are parodies/interpretations of the original songs. You may use it for private study, scholarship, research or language learning purposes only