Home » F » Fort Minor »

Fort Minor - Red To Black Bass

Artists:  A B C D E F G H I J K L M N O P Q R S T U V W X Y Z # 

Red To Black Bass

(Version #1)
Fort Minor
Intro
G|--------------------|-------------------|
D|1-1-1---4-3-1-3-1---|-------------------|
A|------------------4-|2-2-2---2-4-2-1-1--|
E|--------------------|-----------------4-| x4

G|--------------------|----------------|
D|1-1-1---4-3-1-3-1---|----------------|
A|------------------4-|2-2-2---2-4-2---|
E|--------------------|----------------| 

Verse 1
G|--------------------|-------------------|
D|1-1-1---4-3-1-3-1---|-------------------|
A|------------------4-|2-2-2---2-4-2-1-1--|
E|--------------------|-----------------4-| x4

Bridge
G|-----------play-more-quietly------------|
D|1-1-1---4-3-1-3-1---|-------------------|
A|------------------4-|2-2-2---2-4-2-1-1--|
E|--------------------|-----------------4-| x2

Verse 2
G|--------------------|-------------------|
D|1-1-1---4-3-1-3-1---|-------------------|
A|------------------4-|2-2-2---2-4-2-1-1--|
E|--------------------|-----------------4-| x5

G|--------------------|----------------|
D|1-1-1---4-3-1-3-1---|----------------|
A|------------------4-|2-2-2---2-4-2---|
E|--------------------|----------------| 

Chorus+End
G|--------------------|-------------------|
D|1-1-1---4-3-1-3-1---|-------------------|
A|------------------4-|2-2-2---2-4-2-1-1--|
E|--------------------|-----------------4-| till end
            
Submit corrections

↑ Back to top | Tablatures and chords for acoustic guitar and electric guitar, ukulele, drums are parodies/interpretations of the original songs. You may use it for private study, scholarship, research or language learning purposes only