» » »

For King And Country - Shoulders Tabs

Artists:  A B C D E F G H I J K L M N O P Q R S T U V W X Y Z # 

Shoulders Tabs

(ver. 1) Click to play this song!
For King And Country
 Rating:
2.6/5 (30 votes)

 Shoulders  lessons Tabs too difficult? Try these video lessons and learn fast
 
                Tuning: Standard
Chorus
e|---------------------------------------------------------------------------|
B|---------------------------------------------------------------------------|
G|------8--------------------------------------------------------------------|
D|------8------------------------------------------8-------------------------|
A|------6------------------------------------------8-------------------------|
E|-------------------------------------------------6-------------------------|
    My help comes from You     You're right here, pulling me through
e|---------------------------------------------------------------------------|
B|---------------------------------------------------------------------------|
G|----------------5----------------------------------------------------------|
D|----------------5-------------------------6----------------------8---------|
A|----------------3-------------------------6----------------------8---------|
E|------------------------------------------4----------------------6---------|
    You carry my weakness, my sickness, my brokenness all on Your shoulders
    Your shoulders
e|---------------------------------------------------------------------------|
B|---------------------------------------------------------------------------|
G|------8--------------------------------------------------------------------|
D|------8---------------------------------8----------------------------------|
A|------6---------------------------------8----------------------------------|
E|----------------------------------------6----------------------------------|
     My help comes from You   You are my rest, my rescue
e|---------------------------------------------------------------------------|
B|---------------------------------------------------------------------------|
G|-------------------5-------------------------------------------------------|
D|-------------------5--------------------------6---------------------8------|
A|-------------------3--------------------------6---------------------8------|
E|----------------------------------------------4---------------------6------|
    I don't have to see to believe that You're lifting me up on Your shoulders
     Your shoulders
Bridge
e|-16----------16----------16----------16------------------------------------|
B|-------18----------18----------18----------18------------------------------|
G|----17----17----17----17----17----17----17----17---------------------------|
D|---------------------------------------------------------------------------|
A|---------------------------------------------------------------------------|
E|---------------------------------------------------------------------------|

e|-15----------15----------15----------15------------------------------------|
B|-------18----------18----------18----------18------------------------------|
G|----17----17----17----17----17----17----17----17---------------------------|
D|---------------------------------------------------------------------------|
A|---------------------------------------------------------------------------|
E|---------------------------------------------------------------------------|            
Submit corrections


        Shoulders  lessons Hard to play? Try these video lessons and learn fast Shoulders  lessons
        
↑ Back to top | Tablatures and chords for acoustic guitar and electric guitar, ukulele, drums are parodies/interpretations of the original songs. You may use it for private study, scholarship, research or language learning purposes only