» » »

For King And Country - Middle Of Your Heart Tabs

Artists:  A B C D E F G H I J K L M N O P Q R S T U V W X Y Z # 

Middle Of Your Heart Tabs

(ver. 1) Click to play this song!
For King And Country
 Rating:
2.1/5 (24 votes)

 Middle Of Your Heart lessons Tabs too difficult? Try these video lessons and learn fast
 
                Tuning: Standard

e|-----18----16----16----15--------------------------------------------------|
B|--16----16----16----16-----------------------------------------------------|
G|---------------------------------------------------------------------------|
D|---------------------------------------------------------------------------|
A|---------------------------------------------------------------------------|
E|---------------------------------------------------------------------------|
    (First time at "This is where I admit")
Prechorus
e|---------------------------------------------------------------------------|
B|---------------------------------------------------------------------------|
G|-----/10(16x)-/10(x16)-----------------------------------------------------|
D|---------------------------------------------------------------------------|
A|---------------------------------------------------------------------------|
E|---------------------------------------------------------------------------|
Chorus
e|---------------------------------------------------------------------------|
B|---------------------------------------------------------------------------|
G|------------------8--------------------------------------------------------|
D|------------------8------------------------------------6-------------------|
A|------------------6------------------------------------6-------------------|
E|-------------------------------------------------------4-------------------|
  So take me to the middle of Your heart  Lead me to wherever Your love starts
e|---------------------------------------------------------------------------|
B|---------------------------------------------------------------------------|
G|---------------------------------------------------------------------------|
D|-------3------------------------------------6------------------------------|
A|-------3------------------------------------6------------------------------|
E|-------1------------------------------------4------------------------------|
    To a new day dawning               To the place You are
e|---------------------------------------------------------------------------|
B|---------------------------------------------------------------------------|
G|--------------------8------------------------------------------------------|
D|--------------------8-----------------------------------------------6------|
A|--------------------6-----------------------------------------------6------|
E|--------------------------------------------------------------------4------|
   And if You want to take me over the edge  I'll let you cause Your love is where I'll land
e|---------------------------------------------------------------------------|
B|---------------------------------------------------------------------------|
G|---------------------------------------------------------------------------|
D|---------3-------------------6---------------------------------------------|
A|---------3-------------------6---------------------------------------------|
E|---------1-------------------4---------------------------------------------|
     Wanna be right where You are,  In the middle of Your heart            
Submit corrections


        Middle Of Your Heart lessons Hard to play? Try these video lessons and learn fast Middle Of Your Heart lessons
        
↑ Back to top | Tablatures and chords for acoustic guitar and electric guitar, ukulele, drums are parodies/interpretations of the original songs. You may use it for private study, scholarship, research or language learning purposes only