Home » F » Forever The Sickest Kids »

Forever The Sickest Kids - The Way She Moves Tabs

Artists:  A B C D E F G H I J K L M N O P Q R S T U V W X Y Z # 

The Way She Moves Tabs

(ver. 1) Click to play this song!
Forever The Sickest Kids
 Rating:
4.5/5 (8 votes)
                Band: Forever The Sickest Kids
Tunning: Eb Standard (Standard but half-step down)

                                    Listen to song for strumming.



Intro
e|---------------------------------------------------------------------------|
B|-10-10--10 10---10-10---10-10---------x4-----------------------------------|
G|--9--9---9--9----9-9-----9--9----------------------------------------------|
D|--7--7---7--7----0-0-----0--0----------------------------------------------|
A|--0--0---0--0----x-x-----x--x----------------------------------------------|
E|-----------------9-9----10-10----------------------------------------------|

Verse
e|---------------------------------------------------------------------------|
B|-----------------------------------------x2--------------------------------|
G|--------------------------7777-777-----------------------------------------|
D|---77777-7777-777--44444--7777-777-----------------------------------------|
A|---77777-7777-777--44444--5555-555-----------------------------------------|
E|---55555-5555-555--22222---------------------------------------------------|
PM   ....  ...  ..   ....   ...  ..  

                                           Ring into Chorus 
e|-------------------------------------|-------------------------------------|
B|-10-10--10 10---10-10---10-10----x2--|-------------------------------------|
G|--9--9---9--9----9-9-----9--9--------|-----7~------------------------------|
D|--7--7---7--7----0-0-----0--0--------|-----7~------------------------------|
A|--0--0---0--0----x-x-----x--x--------|-----5~------------------------------|
E|-----------------9-9----10-10--------|-----5~------------------------------|


Chorus
e|---------------------------------------------------------------------------|
B|---------------------------------------------------------x2----------------|
G|--7777-------------------------7777-------9~-9999--------------------------|
D|--7777--777777---4444--222222--7777--4-4--9~-9999--------------------------|
A|--5555--777777---4444--222222--5555--4-4--7~-7777--------------------------|
E|--------555555---2222--000000--------2-2-----------------------------------|


Verse 2
e|---------------------------------------------------------------------------|
B|-10-10--10 10---10-10---10-10---------x5-----------------------------------|
G|--9--9---9--9----9-9-----9--9----------------------------------------------|
D|--7--7---7--7----0-0-----0--0----------------------------------------------|
A|--0--0---0--0----x-x-----x--x----------------------------------------------|
E|-----------------9-9----10-10----------------------------------------------|

Verse 2 Cont. (this part is tricky, the slides are quick and you may have
                                                     to work with this a bit.)
e|---------------------------------------------------------------------------|
B|---------------------------------------------------------------------------|
G|---------------------------------------------------------------------------|
D|---6-7-6/9-7-9-7/11-9-11-12-14---------------------------------------------|
A|--7------------------------------------------------------------------------|
E|---------------------------------------------------------------------------|


Chorus
e|---------------------------------------------------------------------------|
B|---------------------------------------------------------x2----------------|
G|--7777-------------------------7777-------9~-9999--------------------------|
D|--7777--777777---4444--222222--7777--4-4--9~-9999--------------------------|
A|--5555--777777---4444--222222--5555--4-4--7~-7777--------------------------|
E|--------555555---2222--000000--------2-2-----------------------------------|


e|---------------------------------------------------------------------------|
B|1010101010--999--1010101010--999--1010101010--999--1010101010--999---10~---|
G|9-9-9-9-9---999--9-9-9-9-9---999--9-9-9-9-9---999--9-9-9-9-9---999----9~---|
D|---------------------------------------------------------------------------|
A|---------------------------------------------------------------------------|
E|---------------------------------------------------------------------------|


Bridge                                         PreChorus
e|-------------------------------------------|-------------------------------|
B|-------------------------------------------|-------------------------------|
G|--------7777--9999--------------77--999999-|----------9999999--------------|
D|--4444--7777--9999--7777--4444--77--999999-|--4444----9999999--------------|
A|--4444--5555--7777--7777--4444--55--777777-|--4444----7777777--------------|
E|--2222--5555--7777--5555--2222--55--777777-|--2222-------------------------|


Chorus                                                    Then play this.
e|-------------------------------------------------------|-------------------|
B|----------------------------------------------------x3-|-------------------|
G|--7777-------------------------7777-------9~-9999------|-7777---9----------|
D|--7777--777777---4444--222222--7777--4-4--9~-9999------|-7777---9----------|
A|--5555--777777---4444--222222--5555--4-4--7~-7777------|-5555---7----------|
E|--------555555---2222--000000--------2-2---------------|-------------------|


Ending
e|---------------------------------------------------------------------------|
B|-10-10--10 10---10-10---10-10---------x3-----------------------------------|
G|--9--9---9--9----9-9-----9--9----------------------------------------------|
D|--7--7---7--7----0-0-----0--0----------------------------------------------|
A|--0--0---0--0----x-x-----x--x----------------------------------------------|
E|-----------------9-9----10-10----------------------------------------------|



 Comment and Rate. 
            
Submit corrections

↑ Back to top | Tablatures and chords for acoustic guitar and electric guitar, ukulele, drums are parodies/interpretations of the original songs. You may use it for private study, scholarship, research or language learning purposes only