Home » F » Flyleaf »

Flyleaf - Penholder Bass

Artists:  A B C D E F G H I J K L M N O P Q R S T U V W X Y Z # 

Penholder Bass

(ver. 1) Click to play this song!
Flyleaf
 Rating:
4/5 (4 votes)
                
Please note i did no write this. I found this on another site.
I saw it requested so i thought i would post.
I believe this is right, ive listened in and played along and it sounds fine, but its 
you really, im no expert :)

Come in at (0:05)

Intro/Verse

G|---------14~------------------12p11----14~----------------|
D|-14~--12----12\10~--9~--9/14~-------12------10~---9~------|
A|----------------------------------------------------------|
D|----------------------------------------------------------|

G|--------------12--------------11h12----14~----------------|
D|-9/14~-12--10-----9~----9/14--------12------10~---9~------|
A|----------------------------------------------------------|
D|----------------------------------------------------------|

G|-------12p11----14-----------------------14---------------|
D|-9/14~-------12------10~---9~---9/14~-12----12\10---9~----|
A|----------------------------------------------------------|
D|----------------------------------------------------------|

Pre-Chorus (0:43)

G|---------------------------------------------------7-------7------------------------|
D|-10-10-10-10-9-9-9-9-10-10-10-10-9-9------10-10-10---9-9-9---10-10-10-10-10---------|
A|-------------------------------------9-10-----------------------------------10------|
D|-------------------------------------------------------------------------------0~~~-|

Chorus (0:55)

G|--------------------------------------------------------------------------|
D|--------------------------------------------------------------------------|
A|-----------------------------------9-10-----------------------------------|  x2
D|-2-2-2-2-2-2-2-2-10-10-10-10-10-10------5-5-5-5-5-5-5-5-0-0-0-0-0-0-0-0---|

Verse 2 (1:22)

G|---------14~-----------------16~-----------------|
D|-14~--12-----10~-9~--9/14-14----14\12--10~--9~---|
A|-------------------------------------------------|
D|-------------------------------------------------|

G|-------12p11----14-------------------16\14~--12~--11~-----|
D|-9/14~-------12------10~--9~--9/14-----------10-~--9~-----|
A|----------------------------------------------------------|
D|----------------------------------------------------------|

G|-------12p11----14------------------12p11----14-------------|
D|-9/14--------12------10~--9~--9/14--------12------10~--9~---|
A|------------------------------------------------------------|
D|------------------------------------------------------------|

Pre-Chorus (2:00)

G|---------------------------------------------------7-------7------------------------|
D|-10-10-10-10-9-9-9-9-10-10-10-10-9-9------10-10-10---9-9-9---10-10-10-10-10---------|
A|-------------------------------------9-10-----------------------------------10------|
D|-------------------------------------------------------------------------------0~~~-|

Chorus (2:14)

G|--------------------------------------------------------------------------|
D|--------------------------------------------------------------------------|
A|-----------------------------------9-10-----------------------------------|  x2
D|-2-2-2-2-2-2-2-2-10-10-10-10-10-10------5-5-5-5-5-5-5-5-0-0-0-0-0-0-0-0---|

Bridge (3:05)

G|-------9-9h11-10h12-12h14-12h14-14h16-16-16~~---|
D|------------------------------------------------|
A|------------------------------------------------|
D|-2~~~~------------------------------------------|

Then Rest

Chorus (3:28)

G|--------------------------------------------------------------------------|
D|--------------------------------------------------------------------------|
A|-----------------------------------9-10-----------------------------------|  x2
D|-2-2-2-2-2-2-2-2-10-10-10-10-10-10------5-5-5-5-5-5-5-5-0-0-0-0-0-0-0-0---|
            
Submit corrections

↑ Back to top | Tablatures and chords for acoustic guitar and electric guitar, ukulele, drums are parodies/interpretations of the original songs. You may use it for private study, scholarship, research or language learning purposes only