» » »

Flyleaf - Im Sorry Tabs

Artists:  A B C D E F G H I J K L M N O P Q R S T U V W X Y Z # 

Im Sorry Tabs

(ver. 1) Click to play this song!
Flyleaf
 Rating:
4/5 (4 votes)

 Im Sorry lessons Tabs too difficult? Try these video lessons and learn fast
 
                Forgive me if this isn't perfect structure, it's my first tab. i think i did alright 
this isn't a very hard song, though it is an awsome song

Tuning is drop D (dADGBE)

| /  slide up
| \  slide down
| h  hammer-on
| p  pull-off
| ~  vibrato
| +  harmonic
| x  Mute note
| PM Palm mute

both guitars (those are 10s, not 1s and 0s)
E |----|-------------------|
b |----|-------------------|
g |----|-------------------|
d |----|22--5--5—-59109--22|
a |----|22--5--5—-59109--22|
d |----|22--5--5—-59109--22|
“I’m sorry”

Gtr. 1
E |x--xxx---x--xxxxxxxxxxxxxxxxxxxx-------------------|
b |x--xxx---x--xxxxxxxxxxxxxxxxxxxx-------------------|
g |x--xxx---x--xxxxxxxxxxxxxxxxxxxx-------------------|
d |x--xxx---x--xxxxxxxxxxxxxxxxxxxx-5555555555999999--|
a |x--xxx---x--xxxxxxxxxxxxxxxxxxxx-5555555555999999--|
d |x--xxx---x--xxxxxxxxxxxxxxxxxxxx-5555555555999999--|
5th fret----|  2nd--------|7th----| PM----------------|

Gtr. 2
E |---------------------------------------------------|
b |---------------------------------------------------|
g |---------------------------------------------------|
d |--------------------22-5-5-59109-5555555555999999--|
a |--------------------22-5-5-59109-5555555555999999--|
d |--------------------22-5-5-59109-5555555555999999--|
                       PM-----------------------------|

Both guitars
E |-------------------|
b |-------------------|
g |-------------------|
d |22--5--5—-59109--22|
a |22--5--5—-59109--22|
d |22--5--5—-59109--22|

Gtr. 1
E |x--xxx---x--xxxxxxxxxxxxxxxxxxxx-------------------|
b |x--xxx---x--xxxxxxxxxxxxxxxxxxxx-------------------|
g |x--xxx---x--xxxxxxxxxxxxxxxxxxxx-------------------|
d |x--xxx---x--xxxxxxxxxxxxxxxxxxxx-5555555555559999--|
a |x--xxx---x--xxxxxxxxxxxxxxxxxxxx-5555555555559999--|
d |x--xxx---x--xxxxxxxxxxxxxxxxxxxx-5555555555559999--|
   5th fret-|  2nd--------|7th----| PM----------------|

Gtr. 2
E |---------------------------------------------------|
b |---------------------------------------------------|
g |---------------------------------------------------|
d |--------------------22-5-5-59109-5555555555559999--|
a |--------------------22-5-5-59109-5555555555559999--|
d |--------------------22-5-5-59109-5555555555559999--|
                       PM-----|     |-----------------|

Both (chorus)
E |------------------------------------------------------------------|
b |------------------------------------------------------------------|
g |------------------------------------------------------------------|
d |222555222555-9109--222555222555-9109-9h10-9h10-9h10-9h10-9h10-9h10|
a |222555222555-9109--222555222555-9109------------------------------|
d |222555222555-9109--222555222555-9109------------------------------|

E |-------------------------------------------------------|
b |-------------------------------------------------------|
g |-------------------------------------------------------|
d |222555222555-9109--222555222555-9109--222555222555-9109|
a |222555222555-9109--222555222555-9109--222555222555-9109|
d |222555222555-9109--222555222555-9109--222555222555-9109|

E |----------------------------|
b |----------------------------|
g |----------------------------|
d |9h10-9h10-9h10-9h10-9h10-9-9|
a |-------------------------9-9|
d |-------------------------9-9|

both
E |-------------------|
b |-------------------|
g |-------------------|
d |22--5--5—-59109--22|
a |22--5--5—-59109--22|
d |22--5--5—-59109--22|

Gtr. 1
E |x--xxx---x—xxxxxxxxxxxx-------------------------|
b |x--xxx---x—xxxxxxxxxxxx-------------------------|
g |x--xxx---x—xxxxxxxxxxxx-------------------------|
d |x--xxx---x—xxxxxxxxxxxx-------5555555555999999--|
a |x--xxx---x—xxxxxxxxxxxx-------5555555555999999--|
d |x--xxx---x—xxxxxxxxxxxx-------5555555555999999--|
  5th fret--|  2nd-------|       PM----------------|

Gtr. 2
E |----------------------------------------------|
b |----------------------------------------------|
g |----------------------------------------------|
d |--------------------22-5-5-59-5555555555999999|
a |--------------------22-5-5-59-5555555555999999|
d |--------------------22-5-5-59-5555555555999999|
                       PM------------------------|

both
E |-------------------|
b |-------------------|
g |-------------------|
d |22--5--5—-59109--22|
a |22--5--5—-59109--22|
d |22--5--5—-59109--22|

Gtr. 1
E |x--xxx---x—xxxxxxxxxxxx-----------------------|
b |x--xxx---x—xxxxxxxxxxxx-----------------------|
g |x--xxx---x—xxxxxxxxxxxx-----------------------|
d |x--xxx---x—xxxxxxxxxxxx—-5(let ring)9b--------|
a |x--xxx---x—xxxxxxxxxxxx--5----------9b--------|
d |x--xxx---x—xxxxxxxxxxxx--5----------9b--------|
  5th fret--|

Gtr. 2
E |----------------------------------------------|
b |----------------------------------------------|
g |----------------------------------------------|
d |-------------------------5(let ring)9b--------|
a |-------------------------5----------9b--------|
d |-------------------------5----------9b--------|

Both (chorus)
E |------------------------------------------------------------------|
b |------------------------------------------------------------------|
g |------------------------------------------------------------------|
d |222555222555-9109--222555222555-9109-9h10-9h10-9h10-9h10-9h10-9h10|
a |222555222555-9109--222555222555-9109------------------------------|
d |222555222555-9109--222555222555-9109------------------------------|

E |-------------------------------------------------------|
b |-------------------------------------------------------|
g |-------------------------------------------------------|
d |222555222555-9109--222555222555-9109--222555222555-9109|
a |222555222555-9109--222555222555-9109--222555222555-9109|
d |222555222555-9109--222555222555-9109--222555222555-9109|

E |----------------------------|
b |----------------------------|
g |----------------------------|
d |9h10-9h10-9h10-9h10-9h10-9-9|
a |-------------------------9-9|
d |-------------------------9-9|

Interlude

(im still working on this part, the guitars are deep in the mix)

Both (chorus)
E |------------------------------------------------------------------|
b |------------------------------------------------------------------|
g |------------------------------------------------------------------|
d |222555222555-9109--222555222555-9109-9h10-9h10-9h10-9h10-9h10-9h10|
a |222555222555-9109--222555222555-9109------------------------------|
d |222555222555-9109--222555222555-9109------------------------------|

E |-------------------------------------------------------|
b |-------------------------------------------------------|
g |-------------------------------------------------------|
d |222555222555-9109--222555222555-9109--222555222555-9109|
a |222555222555-9109--222555222555-9109--222555222555-9109|
d |222555222555-9109--222555222555-9109--222555222555-9109|

E |----------------------------|
b |----------------------------|
g |----------------------------|
d |9h10-9h10-9h10-9h10-9h10-9-9|
a |-------------------------9-9|
d |-------------------------9-9|

both
E |-------------------|
b |-------------------|
g |-------------------|
d |22--5--5—-59109--22|
a |22--5--5—-59109--22|
d |22--5--5—-59109--22|

E |xxxxxxxxxxxx|
b |xxxxxxxxxxxx|
g |xxxxxxxxxxxx|
d |xxxxxxxxxxxx|
a |xxxxxxxxxxxx|
d |xxxxxxxxxxxx|
            
Submit corrections


        Im Sorry lessons Hard to play? Try these video lessons and learn fast Im Sorry lessons
        
↑ Back to top | Tablatures and chords for acoustic guitar and electric guitar, ukulele, drums are parodies/interpretations of the original songs. You may use it for private study, scholarship, research or language learning purposes only