Home » F » Flow »

Flow - Niji No Sora Tabs

Artists:  A B C D E F G H I J K L M N O P Q R S T U V W X Y Z # 

Niji No Sora Tabs

(ver. 1) Click to play this song!
Flow
Section 1:

E|-------------------------------------|
B|--7h8--10----------------------------|
G|--------------7--9--6--7-------------|
D|----------------------------7--5--4--|
A|-------------------------------------|
D|-------------------------------------|

Section 2:

E|--------------------------------------------------------|
B|--------------------------------------------------------|
G|--------------------------------------------------------|
D|--9--7--9--7--9--7--9p7--------9-9--7--9--7--9--7--9p7--|
A|--9--7--9--7--9--7--9p7--------9-9--7--9--7--9--7--9p7--|
D|--9--7--9--7--9--7--9p7--------9-9--7--9--7--9--7--9p7--|

Section 3. A:

E|-------------------------------------------------------------------------------------|
B|-------------------------------------------------------------------------------------|
G|-------------------------------------------------------------------------------------|
D|------7--9--7-------7--9--7-------7--9--7-------7--9--7-------7--9--7-------7--9--7--|
A|--9-9-----------9-9-----------9-9-----------9-9-----------9-9-----------9-9----------|
D|-------------------------------------------------------------------------------------|

Section 3. B: (Play straight after 3. A, <7> means natural harmonic at the 7th fret)

E|-------------------|
B|--------<7>--------|
G|-----<7>---<7>-----|
D|--<7>-------- <7>--|
A|-------------------|
D|-------------------|            
Submit corrections

↑ Back to top | Tablatures and chords for acoustic guitar and electric guitar, ukulele, drums are parodies/interpretations of the original songs. You may use it for private study, scholarship, research or language learning purposes only