Home » F » Flow »

Flow - Kaleidoscope Tabs

Artists:  A B C D E F G H I J K L M N O P Q R S T U V W X Y Z # 

Kaleidoscope Tabs

(ver. 1) Click to play this song!
Flow
-----------------------------------------------------------------------------
                            FLOW - Kaleidoscope
-----------------------------------------------------------------------------

Tuning:Standard
Intro
Clean                                      Distortion
e|----4-----------------2------------|    e|--2-2-2-2-2---|
B|----6-----------------2------------|    B|--2-2-2-2-2---|
G|----6-----------------3------------| X2 G|--3-3-3-3-3---|
D|----6-----------------4------------|    D|--4-4-4-4-4---|
A|-----------------------------------|    A|--------------|
E|-----------------------------------|    E|--------------|

e|------------------------------------------------------------------|
B|------------------------------------------------------------------|
G|-----6-6-6-6-5-6-6-6-6-13-11-10-11-13-11-10-11-10-8---------------|
D|-----X-X-X-X-X-X-X-X-X-X--X--X--X--X--X--X--X--X--X---------------|
A|-----4-4-4-4-3-4-4-4-4-11-9--8--9--11-9--8--9--8--6---------------| X2
E|------------------------------------------------------------------|

verse
e|--------------------------------------------------------------------------|
B|--------------------------------------------------------------------------|
G|--6-6--6--6-6------------------6-6--6--6-6--------------------------------|
D|--6-6--6--6-6-4-4--4-4--4-4-4--6-6--6--6-6-4-4--4-4--4-4-4--6-6-6-6-------|
A|--4-4--4--4-4-4-4--4-4--4-4-4--4-4--4--4-4-4-4--4-4--4-4-4--6-6-6-6-------|
E|--------------2-2--2-2--2-2-2--------------2-2--2-2--2-2-2--4-4-4-4-------|

Chorus
e|------------------|
B|------------------|
G|-6---3-6---6------|
D|-6-6-3-6-4-6-4-6--|
A|-4-6-1-4-4-4-4-6--|x2
E|---4-----2---2-4--|

Solo
e|--9-8----9-8---9-8----9-8---9-8-9--11---|
B|------9------9-----9------9-------------|
G|----------------------------------------|
D|----------------------------------------| X4
A|----------------------------------------|
E|----------------------------------------|

Bridge
e|--------------------------------------------------------------------------|
B|--------------------------------------------------------------------------|
G|------------------------------------------6-8-----------------------------|
D|--4-4-X-X-X-4-4-X-X-X-4-4-X-X-X-4-4-X-X-X-6-8-6---------------------------|
A|--4-4-X-X-X-4-4-X-X-X-4-4-X-X-X-4-4-X-X-X-4-6-6---------------------------|
E|--2-2-X-X-X-2-2-X-X-X-2-2-X-X-X-2-2-X-X-X-----4---------------------------|

Key
| /  slide up
| \  slide down
| h  hammer-on
| p  pull-off
| ~  vibrato
| +  harmonic
| x  Mute note
| ^  Palm mute
| *  Let ring
=============================================================================
            
Submit corrections

↑ Back to top | Tablatures and chords for acoustic guitar and electric guitar, ukulele, drums are parodies/interpretations of the original songs. You may use it for private study, scholarship, research or language learning purposes only