Home » F » Flow »

Flow - Colors Tabs

Artists:  A B C D E F G H I J K L M N O P Q R S T U V W X Y Z # 

Colors Tabs

(ver. 1) Click to play this song!
Flow
Tuning: Half-Step Down

eb|------------------|---------------------------------------------------------|
Bb|--11-9-8-8--------|-------/8-9----------------------------------------------|
Gb|------------8p7h8-|-(3x)-------*4-------------------------------------------|
Db|------------------|---------------------------------------------------------|
Ab|------------------|---------------------------------------------------------|
Eb|------------------|---------------------------------------------------------|

  Cant explain strumming pattern but ill post a link from the video I got this tab from

eb|----------------------------------------------------------------------------------------|
Bb|----------------------------------------------------------------------------------------|
Gb|------------------------------------------------------------8-8-8--8-8-8--8-8-8--8-8-8--|
Db|----6-6-6--6-6-6--6-6-6--6-6-6--8-8-8--8-8-8--8-8-8--8-8-8--8-8-8--8-8-8--8-8-8--8-8-8--|
Ab|----6-6-6--6-6-6--6-6-6--6-6-6--8-8-8--8-8-8--8-8-8--8-8-8--6-6-6--6-6-6--6-6-6--6-6-6--|
Eb|----4-4-4--4-4-4--4-4-4--4-4-4--6-6-6--6-6-6--6-6-6--6-6-6------------------------------|

eb|---------------------------------------------------------------------------|
Bb|---------------------------------------------------------------------------|
Gb|---5-5-5--5-5-5--5-5-5--5-5-5--6--8----------------------------------------|
Db|---5-5-5--5-5-5--5-5-5--5-5-5--6--8----------------------------------------|
Ab|---3-3-3--3-3-3--3-3-3--3-3-3--4--6----------------------------------------|
Eb|---------------------------------------------------------------------------|

eb|------------------|--------11--10--8--------------------------------------------------|
Bb|--11-9-8-8--------|--------x---x---x---/7-8--x-x-5--8-7-------------------------------|
Gb|------------8p7h8-|----8~~-8---7---5--------------------8-----------------------------|
Db|------------------|---------------------------------------10-8-6-5-6~--8--10--8--5-6--|
Ab|------------------|-------------------------------------------------------------------|
Eb|------------------|-------------------------------------------------------------------|

eb|----------------------------------------------------------------------------------------|
Bb|-------------------------------------------------------8/11--11--8/11--11--x-x--13--11--|
Gb|--8-8-8--x--8-8-8----8/10--10--8/10--10-x-x--12--10----x-x---x---x-x---x---x-x--x---x---|
Db|--8-8-8--x--8-8-8----x-x---x---x-x---x--x-x--x---x-----5/8---8---5/8---8---x-x--10--8---|
Ab|--6-6-6--x--6-6-6----6/8---8---6/8---8--x-x--10--8--------------------------------------|
Eb|----------------------------------------------------------------------------------------|

eb|---------------------------------------------------------|
Bb|-------------------------------8/11-11-11--11/13\11/13~~-|
Gb|--8/10--10--8/10--x-x--12--10--x-x--x--x----x--x-x---x---|
Db|--x-x---x---x-x---x-x--x---x---5/8--8--8----8/10\8/-10~~-|
Ab|--6/8---8---6/8---x-x--10--8-----------------------------|
Eb|---------------------------------------------------------|

eb|---------------------------------------------------------------------------|
Bb|---12--8--12--10--8--7--8--7--5--7--5--3--5--3--5/7--5--7/9~~--------------|
Gb|---------------------------------------------------------------------------|
Db|---------------------------------------------------------------------------|
Ab|---------------------------------------------------------------------------|
Eb|---------------------------------------------------------------------------|

eb|---------------------------------------------------------------------------------------------|
Bb|---------------------------------------------------------------------------------------------|
Gb|-------------------------------------------------------5--7--8-------------------------------|
Db|---------------------8-8-8-8---5-5-5-5-----------------5--7--8-------------------------------|
Ab|--6-6-6-6---8-8-8-8--6-6-6-6---3-3-3-3---6-6-6-6-------3--5--6----(Pick slide. Its Optional)-|
Eb|--4-4-4-4---6-6-6-6----------------------4-4-4-4---3v----------------------------------------|

eb|-------------------------------------------------------------------------------------|
Bb|--------------------------------------------------11-9-8-8--------11-9-8-8-----------|
Gb|------------------------------------------------------------8p7h8-----------8p7h8----|
Db|--------------------8-8-8-8--5-5-5-5-------------------------------------------------|
Ab|--6-6-6-6--8-8-8-8--6-6-6-6--3-3-3-3-------------------------------------------------|
Eb|--4-4-4-4--6-6-6-6---------------------4v~---6v~-------------------------------------|            
Submit corrections

↑ Back to top | Tablatures and chords for acoustic guitar and electric guitar, ukulele, drums are parodies/interpretations of the original songs. You may use it for private study, scholarship, research or language learning purposes only