» » »

Florida Georgia Line - Holy Tabs

Artists:  A B C D E F G H I J K L M N O P Q R S T U V W X Y Z # 

Holy Tabs

(ver. 1) Click to play this song!
Florida Georgia Line
 Rating:
4.4/5 (17 votes)

 Holy  lessons Tabs too difficult? Try these video lessons and learn fast
 
                e|---------------------------------|---------------------------------|
B|---------------------0---3---3---|---------------------------------|
G|-0-------0-----0h2-----------2h4-|---------0-----------0-------0---|
D|-----0-------0-------------------|-----0-------0--2/4------4---0h2-|
A|---------------------------------|---------------------------------|
E|---------------------------------|---------------------------------|

  
e|---------------------------------|---------------------------------|
B|---------3---3-----------3---3---|---------3---3-----------3---3---|
G|-----0-------2h4---------2---0---|-----0-------2h4---------2---0---|
D|---------------------------------|-2-------------------0-----------|
A|---------------------3-----------|---------------------------------|
E|---------------------------------|---------------------------------|

   
e|---------------------------------|
B|---------------------------------|
G|---------------------------------|  
D|---------------------------------|
A|---------------------------------|
E|-3-------------------------------|
            
Submit corrections


        Holy  lessons Hard to play? Try these video lessons and learn fast Holy  lessons
        
↑ Back to top | Tablatures and chords for acoustic guitar and electric guitar, ukulele, drums are parodies/interpretations of the original songs. You may use it for private study, scholarship, research or language learning purposes only