Home » F » Florence And The Machine »

Florence And The Machine - Jenny Of Oldstones Tabs

Artists:  A B C D E F G H I J K L M N O P Q R S T U V W X Y Z # 

Jenny Of Oldstones Tabs

(ver. 1) Click to play this song!
Florence And The Machine
[Intro]

e|----0-0-0------0---------------------0--------------|
B|-----------1-3---3-1-0---3-3-3-3-1-3----------------|
G|--2-------------------------------------------------|
D|----------------------------------------------------|
A|----------------------------------------------------|
E|----------------------------------------------------|

e|-----0-0-0--0-1-3--1-0h1p0--------------------------|
B|---------------------------3-----3-3-3-1------------|
G|--2----------------------------0---------0h4p0--2---|
D|----------------------------------------------------|
A|----------------------------------------------------|
E|----------------------------------------------------|


[Verse 1]

e|----0-0-0------0---------------------0--------------|
B|-----------1-3---3-1-0---3-3-3-3-1-3----------------|
G|--2-------------------------------------------------|
D|----------------------------------------------------|
A|----------------------------------------------------|
E|----------------------------------------------------|

e|-----0-0-0--0-1-3--1-0h1p0--------------------------|
B|---------------------------3-----3-3-3-1------------|
G|--2----------------------------0---------0h4p0--2---|
D|----------------------------------------------------|
A|----------------------------------------------------|
E|----------------------------------------------------|


[Chorus]

e|-----------------0---1-1-3-3-1-0--|-------------0------------------|
B|------3--3-3-1-3------------------|--3--3-3-1-3-----3--3-3-1-0-----|
G|--2-2-----------------------------|----------------------------2---|
D|----------------------------------|--------------------------------|
A|----------------------------------|--------------------------------|
E|----------------------------------|--------------------------------|


[Verse 2]

e|----0-0-0------0---------------------0--------------|
B|-----------1-3---3-1-0---3-3-3-3-1-3----------------|
G|--2-------------------------------------------------|
D|----------------------------------------------------|
A|----------------------------------------------------|
E|----------------------------------------------------|

e|-----0-0-0--0-1-3--1-0h1p0--------------------------|
B|---------------------------3-----3-3-3-1------------|
G|--2----------------------------0---------0h4p0--2---|
D|----------------------------------------------------|
A|----------------------------------------------------|
E|----------------------------------------------------|


[Chorus]

e|-----------------0---1-1-3-3-1-0--|-------------0------------------|
B|------3--3-3-1-3------------------|--3--3-3-1-3-----3--3-3-1-0-----|
G|--2-2-----------------------------|----------------------------2---|
D|----------------------------------|--------------------------------|
A|----------------------------------|--------------------------------|
E|----------------------------------|--------------------------------|

e|-----------------0---1-1-3-3-1-0--|-------------0-1-3-5------------------|
B|------3--3-3-1-3------------------|--3--3-3-1-3-----------3--3-3-1-0-----|
G|--2-2-----------------------------|----------------------------------2---|
D|----------------------------------|--------------------------------------|
A|----------------------------------|--------------------------------------|
E|----------------------------------|--------------------------------------|


[Outro]

e|----0-0-0------0---------------------0--------------|
B|-----------1-3---3-1-0---3-3-3-3-1-3----------------|
G|--2-------------------------------------------------|
D|----------------------------------------------------|
A|----------------------------------------------------|
E|----------------------------------------------------|

e|-----0-0-0--0-1-3--1-0h1p0--------------------------|
B|---------------------------3-----3-3-3-1------------|
G|--2----------------------------0---------0h4p0--2---|
D|----------------------------------------------------|
A|----------------------------------------------------|
E|----------------------------------------------------|

            
Submit corrections

↑ Back to top | Tablatures and chords for acoustic guitar and electric guitar, ukulele, drums are parodies/interpretations of the original songs. You may use it for private study, scholarship, research or language learning purposes only