Home » F » Florence And The Machine »

Florence And The Machine - Donkey Kosh Tabs

Artists:  A B C D E F G H I J K L M N O P Q R S T U V W X Y Z # 

Donkey Kosh Tabs

(ver. 1) Click to play this song!
Florence And The Machine
E|-----2--3--2h3p2--0-----0--2--0h2p0-----------0--2--0-------------------------------------
B|-------------------------------------3-----3-----------3---------2-------------2--------2-
G|-----------------------------------------------------------------3----------3--------0----
D|-------------------------------------------------------------------------2--------2-------
A|--------------------------------------------------------------4---------------------------
E|-----------------------------------------------------------2---------2--------------------


E|-0-----------2----
B|-------------5----
G|---0-----3--------
D|------4-----------
A|------------------
E|------------------            
Submit corrections

↑ Back to top | Tablatures and chords for acoustic guitar and electric guitar, ukulele, drums are parodies/interpretations of the original songs. You may use it for private study, scholarship, research or language learning purposes only