Home » F » Fleetwood Mac »

Fleetwood Mac - When I See You Again Chords

Artists:  A B C D E F G H I J K L M N O P Q R S T U V W X Y Z # 

When I See You Again Chords
Version #1
Fleetwood Mac


Copy URL

CHORDS

          E-A-D-G-B-e
Asus2     x-0-2-2-0-0
Esus4     0-2-2-2-0-0
Bsus4     x-2-4-4-0-0
C#m7      x-4-6-6-0-0
Asus2/D   x-5-7-7-0-0

---------------------------------------------------------------------------

VERSE
  Asus2                             Esus4
  1 + 2 + 3 + 4 +  1 + 2 + 3 + 4 +  1 + 2 + 3 + 4 +  1 + 2 + 3 + 4 +
e|--------0-------|--------0-------|--------0-------|--------0-------|
B|----0-------0---|----0-------0---|----0-------0---|----0-------0---|
G|--2---2---2---2-|--2---2---2---2-|--2---2---2---2-|--2---2---2---2-|
D|----------------|----------------|----------------|----------------|
A|0---------------|0---------------|----------------|----------------|
E|----------------|----------------|0---------------|0---------------|


CHORUS / CODA
  Bsus4            C#m7             Asus2/D
  1 + 2 + 3 + 4 +  1 + 2 + 3 + 4 +  1 + 2 + 3 + 4 +  1 + 2 + 3 + 4 +
e|--0-------0-----|--0-------0-----|--0-------0-----|--0-------0-----|
B|------0-------0-|------0-------0-|------0-------0-|------0-------0-|
G|----------------|----------------|----------------|----------------|
D|----------------|----------------|----------------|----------------|
A|2-------2-------|4-------4-------|5-------5-------|5-------5-------|
E|----------------|----------------|----------------|----------------|


---------------------------------------------------------------------------

VERSE
       Asus2
When I see you again
        Esus4
Will it be the same
       Asus2
When I see you again
           Esus4
Will it be over
       Asus2
When I see you again
                           Esus4
Will your great eyes still say


CHORUS
                       Bsus4 
What's the matter, baby (What's the matter, baby)
C#m7                  
What's the matter, baby (What's the matter, baby)
                   Asus2/D
What's the matter, baby, baby, baby
                       Bsus4 
What's the matter, baby (What's the matter, baby)
                   C#m7                  
What's the matter, baby (What's the matter, baby)
                       Asus2/D
What's the matter, baby ...   baby ...


VERSE
       Asus2
So she walks slowly down the hall
                            Esus4
There are many doors in the hallway
        Asus2
And she stares at the stairs
                             Esus4
Ooh there are many things to stare at these days
       Asus2
If she sees him again
          Esus4
Will your very best friend
                    Asus2
Will your very best friend
                                 Esus4
Oooh, have been replaced by some other


CHORUS
Bsus4 
  (What's the matter, baby)
                   C#m7                  
What's the matter, baby (What's the matter, baby)
                        Asus2/D
What's the matter, baby, baby, baby
Bsus4 
What's the matter, baby (What's the matter, baby)
C#m7                  
What's the matter, baby (What's the matter, baby)
                   Asus2/D
What's the matter, baby ...   baby ...


MIDDLE 8
                   D
And the dream says I want you
        A
And the dream is gone
                D
So she stays up night on end
        Esus4
Well at least there is a dream left


CODA (Lindsey Buckingham)
     Bsus4
If I see you again
C#m7         Asus2/D
  Will it be over
     Bsus4
If I see you again
C#m7             Asus2/D
  Will it be the same
     Bsus4
If I see you again
C#m7         Asus2/D
  Will it be over
 Bsus4
Again and again
C#m7       Asus2/D
  Over and over

| Bsus4 | C#m7 | Asus2/D | % |
| Bsus4 | C#m7 | Asus2/D | % |

(repeat and fade)
            
Submit corrections

↑ Back to top | Tablatures and chords for acoustic guitar and electric guitar, ukulele, drums are parodies/interpretations of the original songs. You may use it for private study, scholarship, research or language learning purposes only