» » »

Fleet Foxes - Mearcstapa Tabs

Artists:  A B C D E F G H I J K L M N O P Q R S T U V W X Y Z # 

Mearcstapa Tabs

(ver. 1) Click to play this song!
Fleet Foxes
 Rating:
4.3/5 (24 votes)


 Mearcstapa  lessons Tabs too difficult? Try these video lessons and learn fast
 
                ntro:


   0:00
                
g |-------------------------------------------------|    
A#|-0---0---0---0---0---0---0---0---0---0---0---0---|     
D#|-0---0---0---0---0---0---0---0---0---0---0---0---| x4
C |-------------------------0-------0---------------|    
G |-------------0---------------------------0-------|    
F |-0-----------------------------------------------|    
    *   *   *   *   *   *   *   *   *   *   *   *    
   


Verse 1:


   0:12

g |-------------------------------------------------|
A#|-0---0---0---0---0---0---0---0---0---0---0---0---|
D#|-0---0---0---0---0---0---0---0---0---0---0---0---| x2
C |-------------------------0-------0---------------| 
G |-------------0---------------------------0-------|
F |-0-----------------------------------------------|
    *   *   *   *   *   *   *   *   *   *   *   * 

   0:19

g |-------------------------------------------------|
A#|-11--11--11--11--11--11--11--11--11--11--11--11--|
D#|-11--11--11--11--11--11--11--11--11--11--11--11--| x2
C |-------------------------11------11--------------| 
G |-------------11--------------------------11------|
F |-11----------------------------------------------|
    *   *   *   *   *   *   *   *   *   *   *   * 

   0:25

g |-------------------------------------------------|
A#|-0---0---0---0---0---0---0---0---0---0---0---0---|
D#|-0---0---0---0---0---0---0---0---0---0---0---0---| x2
C |-------------------------0-------0---------------|
G |-------------0---------------------------0-------|
F |-0-----------------------------------------------|
    *   *   *   *   *   *   *   *   *   *   *   *  

   0:31                                 0:33       
                                               
g |-------------------------------------2-------2---|
A#|-2---2---2---2---2---2---2---2---2---2---2---2---|
D#|-2---2---2---2---2---2---2---2---2---2---2---2---|
C |-------------------------0-------0---------------|
G |-------------0---------------------------0-------|
F |-0-----------------------------------------------|
    *   *   *   *   *   *   *   *   *   *   *   *  



g |-------------------------------------------------|
A#|-2---2---2---2---2---2---2---2---2---2---2---2---|
D#|-2---2---2---2---2---2---2---2---2---2---2---2---|
C |-------------------------0-------0---------------|
G |-------------0---------------------------0-------|
F |-0-----------------------------------------------|
    *   *   *   *   *   *   *   *   *   *   *   * 



Verse 2:


   0:36

g |-------------------------------------------------|
A#|-0---0---0---0---0---0---0---0---0---0---0---0---|
D#|-0---0---0---0---0---0---0---0---0---0---0---0---| x2
C |-------------------------0-------0---------------| 
G |-------------0---------------------------0-------|
F |-0-----------------------------------------------|
    *   *   *   *   *   *   *   *   *   *   *   * 

   0:43

g |-------------------------------------------------|
A#|-11--11--11--11--11--11--11--11--11--11--11--11--|
D#|-11--11--11--11--11--11--11--11--11--11--11--11--| x2
C |-------------------------11------11--------------| 
G |-------------11--------------------------11------|
F |-11----------------------------------------------|
    *   *   *   *   *   *   *   *   *   *   *   * 

   0:49

g |-------------------------------------------------|
A#|-9---9---9---9---9---9---9---9---9---9---9---9---|
D#|-9---9---9---9---9---9---9---9---9---9---9---9---| x2
C |-------------------------9-------9---------------|
G |-------------9---------------------------9-------|
F |-9-----------------------------------------------|
    *   *   *   *   *   *   *   *   *   *   *   *  

   0:55

g |-------------------------------------------------|
A#|-4---4---4---4---4---4---4---4---4---4---4---4---|
D#|-4---4---4---4---4---4---4---4---4---4---4---4---| x2
C |-------------------------2-------2---------------|
G |-------------2---------------------------2-------|
F |-2-----------------------------------------------|
    *   *   *   *   *   *   *   *   *   *   *   *  

   1:01

g |-------------------------------------------------|
A#|-0---0---0---0---0---0---0---0---0---0---0---0---|
D#|-0---0---0---0---0---0---0---0---0---0---0---0---| x2
C |-------------------------0-------0---------------| 
G |-------------0---------------------------0-------|
F |-9-----------------------------------------------|
    *   *   *   *   *   *   *   *   *   *   *   * 

   1:07

g |-7---7---7---7---7---7---7---7---7---7---7---7---|D4
A#|-7---7---7---7---7---7---7---7---7---7---7---7---|F4
D#|-7---7---7---7---7---7---7---7---7---7---7---7---|A#3 x2
C |-------------------------0-------0---------------| 
G |-------------0---------------------------0-------|
F |-9-----------------------------------------------|
    *   *   *   *   *   *   *   *   *   *   *   * 

   1:13

g |-5---5---5---5---5---5---5---5---5---5---5---5---|
A#|-5---5---5---5---5---5---5---5---5---5---5---5---|
D#|-5---5---5---5---5---5---5---5---5---5---5---5---| x4
C |-------------------------0-------0---------------| 
G |-------------0---------------------------0-------|
F |-0-----------------------------------------------|
    *   *   *   *   *   *   *   *   *   *   *   * 

   1:25
    
g |-9---9---9---9---9---9---9---9---9---9---9---9---|
A#|-9---9---9---9---9---9---9---9---9---9---9---9---|
D#|-9---9---9---9---9---9---9---9---9---9---9---9---|
C |-------------------------0-------0---------------| 
G |-------------0---------------------------0-------|
F |-0-----------------------------------------------|
    *   *   *   *   *   *   *   *   *   *   *   * 

   1:28

g |-9---9---9---9---9---9---9---9---9---9---9---9---|
A#|-9---9---9---9---9---9---9---9---9---9---9---9---|
D#|-9---9---9---9---9---9---9---9---9---9---9---9---|
C |-------------------------------------------------| 
G |-0-----------------------------------------------|
F |-------------------------0-----------0-----------|
    *   *   *   *   *   *   *   *   *   *   *   * 

   1:31

g |-7---7---7---7---7---7---7---7---7---7---7---7---|
A#|-7---7---7---7---7---7---7---7---7---7---7---7---|
D#|-7---7---7---7---7---7---7---7---7---7---7---7---| x2
C |-------------------------0-------0---------------| 
G |-------------0---------------------------0-------|
F |-0-----------------------------------------------|
    *   *   *   *   *   *   *   *   *   *   *   * 



Verse 3:

   
   1:37

g |-12--12--12--12--12--12--12--12--12--12--12--12--|
A#|-12--12--12--12--12--12--12--12--12--12--12--12--|
D#|-12--12--12--12--12--12--12--12--12--12--12--12--| x2
C |-------------------------0-------0---------------| 
G |-------------0---------------------------0-------|
F |-0-----------------------------------------------|
    *   *   *   *   *   *   *   *   *   *   *   * 

   1:43

g |-------------------------------------------------|
A#|-11--11--11--11--11--11--11--11--11--11--11--11--|
D#|-11--11--11--11--11--11--11--11--11--11--11--11--| x2
C |-------------------------11------11--------------| 
G |-------------11--------------------------11------|
F |-11----------------------------------------------|
    *   *   *   *   *   *   *   *   *   *   *   * 

   1:49

g |-------------------------------------------------|
A#|-0---0---0---0---0---0---0---0---0---0---0---0---|
D#|-0---0---0---0---0---0---0---0---0---0---0---0---| x2
C |-------------------------0-------0---------------|
G |-------------0---------------------------0-------|
F |-0-----------------------------------------------|
    *   *   *   *   *   *   *   *   *   *   *   *  

   1:55  
                                     
g |-------------------------------------------------|
A#|-2---2---2---2---2---2---2---2---2---2---2---2---|
D#|-2---2---2---2---2---2---2---2---2---2---2---2---| x2
C |-------------------------0-------0---------------|
G |-------------0---------------------------0-------|
F |-0-----------------------------------------------|
    *   *   *   *   *   *   *   *   *   *   *   *  



Verse 4:


   2:01  

g |-------------------------------------------------|
A#|-0---0---0---0---0---0---0---0---0---0---0---0---|
D#|-0---0---0---0---0---0---0---0---0---0---0---0---| x2
C |-------------------------0-------0---------------| 
G |-------------0---------------------------0-------|
F |-0-----------------------------------------------|
    *   *   *   *   *   *   *   *   *   *   *   * 

   2:07

g |-------------------------------------------------|
A#|-11--11--11--11--11--11--11--11--11--11--11--11--|
D#|-11--11--11--11--11--11--11--11--11--11--11--11--| x2
C |-------------------------11------11--------------| 
G |-------------11--------------------------11------|
F |-11----------------------------------------------|
    *   *   *   *   *   *   *   *   *   *   *   * 

   2:13

g |-------------------------------------------------|
A#|-9---9---9---9---9---9---9---9---9---9---9---9---|
D#|-9---9---9---9---9---9---9---9---9---9---9---9---| x2
C |-------------------------9-------9---------------|
G |-------------9---------------------------9-------|
F |-9-----------------------------------------------|
    *   *   *   *   *   *   *   *   *   *   *   *  

   2:19

g |-------------------------------------------------|
A#|-4---4---4---4---4---4---4---4---4---4---4---4---|
D#|-4---4---4---4---4---4---4---4---4---4---4---4---| x2
C |-------------------------2-------2---------------|
G |-------------2---------------------------2-------|
F |-2-----------------------------------------------|
    *   *   *   *   *   *   *   *   *   *   *   *  



Lyrics (w/melody):

Verse 1:


    A#  A#          C       A#  D   C
    Two minds       in      the air
g |-------------------------------------------------|
A#|-0---0-----------2-------0---4~p~2---------------|
D#|-------------------------------------------------|
C |-------------------------------------------------|
G |-------------------------------------------------|
F |-------------------------------------------------|
    *   *   *   *   *   *   *   *   *   *   *   * 

                                                D
                                                Two
g |-------------------------------------------------|
A#|---------------------------------------------4---|
D#|-------------------------------------------------|
C |-------------------------------------------------|
G |-------------------------------------------------|
F |-------------------------------------------------|
    *   *   *   *   *   *   *   *   *   *   *   * 

    D           C#      B   C#  B
    eyes        on      a   pair
g |-------------------------------------------------|
A#|-4-----------3-------1---3~p~1-------------------|
D#|-------------------------------------------------|
C |-------------------------------------------------|
G |-------------------------------------------------|
F |-------------------------------------------------|
    *   *   *   *   *   *   *   *   *   *   *   * 



g |-------------------------------------------------|
A#|-------------------------------------------------|
D#|-------------------------------------------------|
C |-------------------------------------------------|
G |-------------------------------------------------|
F |-------------------------------------------------|
    *   *   *   *   *   *   *   *   *   *   *   * 

    A#          A#          G           G
    Me          arc         sta         pa
g |-------------------------------------------------|
A#|-0-----------0-----------------------------------|
D#|-------------------------4-----------4-----------|
C |-------------------------------------------------|
G |-------------------------------------------------|
F |-------------------------------------------------|
    *   *   *   *   *   *   *   *   *   *   *   * 

                F   F       F           F  
                On  an      o     -     pen 
g |-------------------------------------------------|
A#|-------------------------------------------------|
D#|-------------2---2-------2-----------2-----------|
C |-------------------------------------------------|
G |-------------------------------------------------|
F |-------------------------------------------------|
    *   *   *   *   *   *   *   *   *   *   *   * 

    F
    sea
g |-------------------------------------------------|
A#|-------------------------------------------------|
D#|-2-----------------------------------------------|
C |-------------------------------------------------|
G |-------------------------------------------------|
F |-------------------------------------------------|
    *   *   *   *   *   *   *   *   *   *   *   *   



Verse 2:


    A#  A#          C       A#  D   C
    But you         turn    a   way
g |-------------------------------------------------|
A#|-0---0-----------2-------0---4~p~2---------------|
D#|-------------------------------------------------|
C |-------------------------------------------------|
G |-------------------------------------------------|
F |-------------------------------------------------|
    *   *   *   *   *   *   *   *   *   *   *   * 

                                                D
                                                No
g |-------------------------------------------------|
A#|---------------------------------------------4---|
D#|-------------------------------------------------|
C |-------------------------------------------------|
G |-------------------------------------------------|
F |-------------------------------------------------|
    *   *   *   *   *   *   *   *   *   *   *   * 

    D           C#      B   C#  B
    fall        in   -  to  day
g |-------------------------------------------------|
A#|-4-----------3-------1---3~p~1-------------------|
D#|-------------------------------------------------|
C |-------------------------------------------------|
G |-------------------------------------------------|
F |-------------------------------------------------|
    *   *   *   *   *   *   *   *   *   *   *   * 

                                            G   A
                                            No
g |-------------------------------------------------|
A#|-------------------------------------------------|
D#|-----------------------------------------4~h~6---|
C |-------------------------------------------------|
G |-------------------------------------------------|
F |-------------------------------------------------|
    *   *   *   *   *   *   *   *   *   *   *   *
   
    A           G       F#  G  
    wind        in      the night
g |-------------------------------------------------|
A#|-------------------------------------------------|
D#|-6-----------4-------3---4-----------------------|
C |-------------------------------------------------|
G |-------------------------------------------------|
F |-------------------------------------------------|
    *   *   *   *   *   *   *   *   *   *   *   *

                            A           G   F#
                            No          put-ting
g |-------------------------------------------------|
A#|-------------------------------------------------|
D#|-------------------------6-----------4~p~3-------|
C |-------------------------------------------------|
G |-------------------------------------------------|
F |-------------------------------------------------|
    *   *   *   *   *   *   *   *   *   *   *   *

    F#          E       D   E D
    slack       in      the line
g |-------------------------------------------------|
A#|-------------------------------------------------|
D#|-3-----------1-----------1-----------------------|
C |---------------------2-----2---------------------|
G |-------------------------------------------------|
F |-------------------------------------------------|
    *   *   *   *   *   *   *   *   *   *   *   * 


Not Verse idk:



    A       G   A   A#  A   G   F   G   D   F   G 
g |-------------------------------------------------|
A#|-------------------------------------------------|
D#|-6-------4---6~h~7~p~6---4---2---4-------2~h~4---| x2
C |-------------------------------------2-----------|
G |-------------------------------------------------|
F |-------------------------------------------------|
    *   *   *   *   *   *   *   *   *   *   *   * 


    G       F   G   G#  G   F   D#  F   C   D#  F 
g |-------------------------------------------------|
A#|-------------------------------------------------|
D#|-4-------2---4~h~5~p~4---2---0---2-------0~h~2---| x2
C |-------------------------------------0-----------|
G |-------------------------------------------------|
F |-------------------------------------------------|
    *   *   *   *   *   *   *   *   *   *   *   * 


    B       C   B   C   B       C   B   C   B  
g |-------------------------------------------------|
A#|-------------------------------------------------|
D#|-8-------9---8---9---8-------9---8---9---8-------|
C |-------------------------------------------------|
G |-------------------------------------------------|
F |-------------------------------------------------|
    *   *   *   *   *   *   *   *   *   *   *   * 


    C   B   C   B           A           C
g |-------------------------------------------------|
A#|-------------------------------------------------|
D#|-9---8---9---8-----------------------9-----------|
C |-------------------------9-----------------------|
G |-------------------------------------------------|
F |-------------------------------------------------|
    *   *   *   *   *   *   *   *   *   *   *   * 


Verse 3:
A#  A#   C  A#  D C
The eyes of the sea

D   D C# B  C# B
Too easy to m--e

A# A# G  G
Me-arcstapa

F    F   F     F    F
Deaf and blind like me


Verse 4:
    A#  A#    C   A#  A#
But the phone doesn't sing

    E     D   C#  B A B
The phone doesn't r-i-ng

G-A A    G    F#  G  
S-o what will you find

A G  F# E D  E D
Mearcstap-a, mind






            
Submit corrections



        Mearcstapa  lessons Hard to play? Try these video lessons and learn fast Mearcstapa  lessons
        
↑ Back to top | Tablatures and chords for acoustic guitar and electric guitar, ukulele, drums are parodies/interpretations of the original songs. You may use it for private study, scholarship, research or language learning purposes only