Home » F » Fixx »

Fixx - Happy Landing Tabs

Artists:  A B C D E F G H I J K L M N O P Q R S T U V W X Y Z # 

Happy Landing Tabs

(ver. 1) Click to play this song!
Fixx
                -------------------------------------------------------------------------------
			     The Fixx - Happy Landing
-------------------------------------------------------------------------------

Tuning: Open G	DGDGBD

This is my first tab so bare with me!

Ok - This is in 3/3 time so 1-2-3, 1-2-3, 1-2-3, In order to get
the strumming down, I would suggest a down strum for each measure to get
the feel. Of course, listen to the song!


Intro (2x)

D|-------|-------|-------|---2/4-|-4-4-4-|-4-4-4-|-4-4-4-|-4-4-4-|
B|-------|-------|-------|-------|-------|-------|-------|-------|
G|-------|-------|-------|-------|-------|-------|-------|-------|
D|-------|-------|-------|-0-2/4-|-4-4-4-|-4-4-4-|-4-4-4-|-4-4-4-|
G|-4-4-4-|-5-5-5-|-0-0-0-|-0-----|-------|-------|-------|-------|  
D|-5-5-5-|-5-5-5-|-0-0-0-|-0-----|-------|-------|-------|-------|
 
   1-2-3   1-2-3   1-2-3   1-2-3   1-2-3   1-2-3   1-2-3   1-2-3


Verse 1

It takes a   
  whole of moonlight to shine on the path of fate

D|-------|-------|-0-0-0-|---2/4-|-4-4-4-|-4-4-4-|-4-4-4-|-4-4-4-|
B|-------|-------|-0-0-0-|-------|-------|-------|-------|-------|
G|-------|-------|-0-0-0-|-------|-------|-------|-------|-------|
D|-------|-------|-0-0-0-|-0-2/4-|-4-4-4-|-4-4-4-|-4-4-4-|-4-4-4-|
G|-4-4-4-|-5-5-5-|-0-0-0-|-0-----|-------|-------|-------|-------|  
D|-5-5-5-|-5-5-5-|-0-0-0-|-0-----|-------|-------|-------|-------|
 
   1-2-3   1-2-3   1-2-3   1-2-3   1-2-3   1-2-3   1-2-3   1-2-3


 One tiny sign to align me with time and space            

D|-4-4-4-|-2-2-2-|-0-0-0-|-0-2-0-|-3-3-3-|-3-3-3-|-3-3-3-|-3-3-3-|
B|-------|-------|-0-0-0-|-0---0-|-------|-------|-------|-------|
G|-------|-------|-0-0-0-|-0---0-|-------|-------|-------|-------|
D|-4-4-4-|-2-2-2-|-0-0-0-|-0-2-0-|-3-3-3-|-3-3-3-|-3-3-3-|-3-3-3-|
G|-------|-------|-0-0-0-|-0---0-|-------|-------|-------|-------|  
D|-------|-------|-0-0-0-|-0---0-|-------|-------|-------|-------|
 
   1-2-3   1-2-3   1-2-3   1-2-3   1-2-3   1-2-3   1-2-3   1-2-3


When I'm 
hiding from somebody somewhere and scared on my feet

D|-5-5-5-|-5-5-5-|-5-5-5-|-5-5-5-|----------|----------|----------|----------|
B|-5-5-5-|-5-5-5-|-5-5-5-|-5-5-5-|-10-10-10-|-10-10-10-|-10-10-10-|-10-10-10-|
G|-5-5-5-|-5-5-5-|-5-5-5-|-5-5-5-|-11-11-11-|-11-11-11-|-11-11-11-|-11-11-11-|
D|-5-5-5-|-5-5-5-|-5-5-5-|-5-5-5-|-12-12-12-|-12-12-12-|-12-12-12-|-12-12-12-|
G|-------|-------|-------|-------|----------|----------|----------|----------|  
D|-------|-------|-------|-------|----------|----------|----------|----------|
 
   1-2-3   1-2-3   1-2-3   1-2-3     1-2-3     1-2-3      1-2-3      1-2-3


Take sadness with all the delight and make a whole day complete

D|-4-4-4-|-2-2-2-|-0-0-0-|-0-2-0-|-0-0-0-|-0-0-0-|-0-0-0-|-0-0-0-|
B|-------|-------|-0-0-0-|-0---0-|-0-0-0-|-0-0-0-|-0-0-0-|-0-0-0-|
G|-------|-------|-0-0-0-|-0---0-|-0-0-0-|-0-0-0-|-0-0-0-|-0-0-0-|
D|-4-4-4-|-2-2-2-|-0-0-0-|-0-2-0-|-0-0-0-|-0-0-0-|-0-0-0-|-0-0-0-|
G|-------|-------|-0-0-0-|-0---0-|-0-0-0-|-0-0-0-|-0-0-0-|-0-0-0-|  
D|-------|-------|-0-0-0-|-0---0-|-0-0-0-|-0-0-0-|-0-0-0-|-0-0-0-|
 
   1-2-3   1-2-3   1-2-3   1-2-3   1-2-3   1-2-3   1-2-3   1-2-3


Chorus

So Happy 
Landing you've been there, We'll come back from disarray, take my hand now to somewhere
Take me on, Take me up, Take me up, Take so, So Far Away

D|-------|		D|------|-------|
B|-------|		B|-10---|-10h12-|
G|-4-4-4-|		G|-11---|-11----|
D|-5-5-5-|		D|-12---|-12----|
G|-5-5-5-|(16X)		G|------|-------|(4X) 
D|-------|		D|------|-------|
 
   1-2-3   1-2-3   1-2-3   1-2-3   1-2-3   1-2-3   1-2-3   1-2-3


Verse 2


Takes more than a full tank of gas to drive away from the past
We keep making promises knowing they just can't last
Are we tiring of pleasures designed to keep our heads in the sand
If you're out there in orbit, alive
Now's a good time to land


Repeat Chorus


Bridge

D|-------|-------|-------|-------|----------|----------|----------|----------|
B|-6-6-6-|-6-6-6-|-6-6-6-|-6-6-6-|--8--8--8-|--8--8--8-|--8--8--8-|--8--8--8-|
G|-7-7-7-|-7-7-7-|-7-7-7-|-7-7-7-|--9--9--9-|--9--9--9-|--9--9--9-|--9--9--9-|
D|-8-8-8-|-8-8-8-|-8-8-8-|-8-8-8-|-10-10-10-|-10-10-10-|-10-10-10-|-10-10-10-|
G|-------|-------|-------|-------|----------|----------|----------|----------|  
D|-------|-------|-------|-------|----------|----------|----------|----------|
 
   1-2-3   1-2-3   1-2-3   1-2-3     1-2-3     1-2-3      1-2-3      1-2-3


Rise from the ashes of fire Started so long ago

D|-------|-------|-------|-------|----------|----------|----------|----------|
B|-6-6-6-|-6-6-6-|-6-6-6-|-6-6-6-|--8--8--8-|--8--8--8-|--8--8--8-|--8--8--8-|
G|-7-7-7-|-7-7-7-|-7-7-7-|-7-7-7-|--9--9--9-|--9--9--9-|--9--9--9-|--9--9--9-|
D|-8-8-8-|-8-8-8-|-8-8-8-|-8-8-8-|-10-10-10-|-10-10-10-|-10-10-10-|-10-10-10-|
G|-------|-------|-------|-------|----------|----------|----------|----------|  
D|-------|-------|-------|-------|----------|----------|----------|----------|
 
   1-2-3   1-2-3   1-2-3   1-2-3     1-2-3     1-2-3      1-2-3      1-2-3


Keep your chin up and cheer up 'Cause life springs from the glow!!

D|-------|-------|-------|-------|----------|----------|----------|----------|
B|-6-6-6-|-6-6-6-|-6-6-6-|-6-6-6-|--8--8--8-|--8--8--8-|--8--8--8-|--8--8--8-|
G|-7-7-7-|-7-7-7-|-7-7-7-|-7-7-7-|--9--9--9-|--9--9--9-|--9--9--9-|--9--9--9-|
D|-8-8-8-|-8-8-8-|-8-8-8-|-8-8-8-|-10-10-10-|-10-10-10-|-10-10-10-|-10-10-10-|
G|-------|-------|-------|-------|----------|----------|----------|----------|  
D|-------|-------|-------|-------|----------|----------|----------|----------|
 
   1-2-3   1-2-3   1-2-3   1-2-3     1-2-3     1-2-3      1-2-3      1-2-3


Instrumental

D|-------|-------|-0-0-0-|---2/4-|-4-4-4-|-4-4-4-|-4-4-4-|-4-4-4-|
B|-------|-------|-0-0-0-|-------|-------|-------|-------|-------|
G|-------|-------|-0-0-0-|-------|-------|-------|-------|-------|
D|-------|-------|-0-0-0-|-0-2/4-|-4-4-4-|-4-4-4-|-4-4-4-|-4-4-4-|
G|-4-4-4-|-5-5-5-|-0-0-0-|-0-----|-------|-------|-------|-------|  
D|-5-5-5-|-5-5-5-|-0-0-0-|-0-----|-------|-------|-------|-------|
 
   1-2-3   1-2-3   1-2-3   1-2-3   1-2-3   1-2-3   1-2-3   1-2-3


 
D|-4-4-4-|-2-2-2-|-0-0-0-|-0-2-0-|-3-3-3-|-3-3-3-|-3-3-3-|-3-3-3-|
B|-------|-------|-0-0-0-|-0---0-|-------|-------|-------|-------|
G|-------|-------|-0-0-0-|-0---0-|-------|-------|-------|-------|
D|-4-4-4-|-2-2-2-|-0-0-0-|-0-2-0-|-3-3-3-|-3-3-3-|-3-3-3-|-3-3-3-|
G|-------|-------|-0-0-0-|-0---0-|-------|-------|-------|-------|  
D|-------|-------|-0-0-0-|-0---0-|-------|-------|-------|-------|
 
   1-2-3   1-2-3   1-2-3   1-2-3   1-2-3   1-2-3   1-2-3   1-2-3


If the truth of the matter lies Deep in our hearts

D|-5-5-5-|-5-5-5-|-5-5-5-|-5-5-5-|----------|----------|----------|----------|
B|-5-5-5-|-5-5-5-|-5-5-5-|-5-5-5-|-10-10-10-|-10-10-10-|-10-10-10-|-10-10-10-|
G|-5-5-5-|-5-5-5-|-5-5-5-|-5-5-5-|-11-11-11-|-11-11-11-|-11-11-11-|-11-11-11-|
D|-5-5-5-|-5-5-5-|-5-5-5-|-5-5-5-|-12-12-12-|-12-12-12-|-12-12-12-|-12-12-12-|
G|-------|-------|-------|-------|----------|----------|----------|----------|  
D|-------|-------|-------|-------|----------|----------|----------|----------|
 
   1-2-3   1-2-3   1-2-3   1-2-3     1-2-3     1-2-3      1-2-3      1-2-3


Are we waiting for luck to decide When light breaks the dark...so

D|-4-4-4-|-2-2-2-|-0-0-0-|-0-2-0-|-0-0-0-|-0-0-0-|-0-0-0-|-0-0-0-|
B|-------|-------|-0-0-0-|-0---0-|-0-0-0-|-0-0-0-|-0-0-0-|-0-0-0-|
G|-------|-------|-0-0-0-|-0---0-|-0-0-0-|-0-0-0-|-0-0-0-|-0-0-0-|
D|-4-4-4-|-2-2-2-|-0-0-0-|-0-2-0-|-0-0-0-|-0-0-0-|-0-0-0-|-0-0-0-|
G|-------|-------|-0-0-0-|-0---0-|-0-0-0-|-0-0-0-|-0-0-0-|-0-0-0-|  
D|-------|-------|-0-0-0-|-0---0-|-0-0-0-|-0-0-0-|-0-0-0-|-0-0-0-|
 
   1-2-3   1-2-3   1-2-3   1-2-3   1-2-3   1-2-3   1-2-3   1-2-3


Repeat Chorus




| /  slide up
| \  slide down
| h  hammer-on
| p  pull-off
| ~  vibrato
| +  harmonic
| x  Mute note
===============================================================================
            
Submit corrections

↑ Back to top | Tablatures and chords for acoustic guitar and electric guitar, ukulele, drums are parodies/interpretations of the original songs. You may use it for private study, scholarship, research or language learning purposes only