» » »

Five Finger Death Punch - Trouble Tabs

Artists:  A B C D E F G H I J K L M N O P Q R S T U V W X Y Z # 

Trouble Tabs

(ver. 1) Click to play this song!
Five Finger Death Punch
 Rating:
4.3/5 (21 vote)

 Trouble lessons Tabs too difficult? Try these video lessons and learn fast
 
                [Intro]

C |---------------------------------------------------------------------------|
G |---------------------------------------------------------------------------|
D#|---------------------------------------------------------------------------|
A#|--5---------------5------------------5---------------5---------------------|x2
F |----6-7-------------6-7---5-7-5-8-7----6-7-------------6-7-------5---------|
A#|---------2222-2-----------------------------2222-2----------7h8---7-5------|



[Verse]

C |---------------------------------------------------------------------------|
G |---------------------------------------------------------------------------|
D#|---------------------------------------------------------------------------|
A#|---------------------------------------------------------------------------|x2
F |---------------------------------------------------------------------------|
A#|-5-1-2--2222-2--5--1-2--0-2-0-3-2--5-0-2--2222-2-2-2-2-222-222-------------|



[Pre-Chorus]

C |--5---7---8---10--8---7---8---7---5---6------------------------------------|
G |--5---7---8---10--8---7---8---7---5---6------------------------------------|
D#|--4---6---7---9---7---6---7---6---4---5------------------------------------|
A#|--2---4---5---7---5---4---5---4---2---4------------------------------------|
F |--2---4---5---7---5---4---5---4---2---4------------------------------------|
A#|--2-x-4-x-5-x-7-x-5---4---5-x-4-x-2-x-4---x-x-------------------------------|



[Chorus]

C |---------------------------------------------------------------------------|
G |------0-----------0----------------0------------0--------------------------|
D#|--------0-----------0-----------------0------------0-----------------------|
A#|--5-5-----0-----------0------------------0------------0--------------------|
F |--3-3-----------------------------------------------------x-2-0------------|
A#|------------5-5---------5-5---0-0-----------2-2-----------x-2-0------------|


C |----------------------------------------------------------7----7-----------|
G |------0-----------0----------------0-------------0--------7----7-----------|
D#|--------0-----------0----------------0-------------0------4h5--4-----------|
A#|--5-5-----0-----------0-------7-7------0----9-9------0----4----4-----------|
F |--3-3-------------------------5-5-----------7-7----------------------------|
A#|--------------5-5--------5-5-----------------------------------------------|


C |---------------------------------------------------------------------------|
G |------0-----------0----------------0------------0--------------------------|
D#|--------0-----------0-----------------0------------0-----------------------|
A#|--5-5-----0-----------0------------------0------------0--------------------|
F |--3-3-----------------------------------------------------x-2-0------------|
A#|------------5-5---------5-5---0-0-----------2-2-----------x-2-0------------|



C |----------------------------------|
G |----------------------------------|
D#|----------------------------------|
A#|---7---9---11--12-----------------|
F |---5---7---9---10----5-7-5-8-7----|
A#|----------------------------------|


[Breakdown]

C |---------------------------------------------------------------------------|
G |---------------------------------------------------------------------------|
D#|---------------------------------------------------------------------------|
A#|-2-------------------------------------------------------------------------|
F |-2-----------3-2-----------3-2----------3-2---5420-5420--------------------|
A#|-2--22-222-2-3-2--2-222-2--3-2---2-222--3-2--------------------------------|


C |---------------------------------------------------------------------------|
G |---------------------------------------------------------------------------|
D#|---------------------------------------------------------------------------|
A#|-2-------------------------------------------------------------------------|
F |-2-----------3-2-----------3-2----------3-2---5420-5420--------------------|
A#|-2--22-222-2-3-2--2-222-2--3-2---2-222-3-2--------------------------------|


[Solo] - Probably not completely accurate but it's the best I could do.

C |---------------------------------------------------------------------------|
G |---------------------------------------------------------------------------|
D#|---------------------------------------------------------------------------|
A#|--10--8--10-----------------------------10--8--10--------------------------|x2
F |--10--8--10---6-8-6-8/10--10-8-6-----6--10--8--10--6-8-6-8/10-8-6---8------|
A#|---------------------------------7-8------------------------------8---6----|



C |---------------------------------------------------------------------------------|
G |---------------------------------------------------------------------------------|
D#|--8-7-5---7-5---5---12-10-8---10-8-----8--8-7-5---7-5---5--12-10-8----10-8----8--|
A#|--------8-----8-------------12------12----------8-----8------------12------12----|
F |---------------------------------------------------------------------------------|
A#|---------------------------------------------------------------------------------|



C |-----------------------------------------------------------10--------------|
G |---------------------------------------------------------8-----------------|
D#|-------------------------7-8-10--7-8-10-8-10-11--8-10-11-------------------|
A#|---------7-8-10--7-8-10-------------------------------------------12\\\----|
F |--7-8-10----------------------------------------------------------12\\\----|
A#|------------------------------------------------------------------12\\\----|


C |------------------8-------------------------------------------------------------|
G |------------------8-------------------------------------------------------------|
D#|--11b-8-11b--10b-----~10p8---10-10b-8--------8----8/10--------------------------|
A#|---------------------------8----------10--10---10-------8-----------------------|
F |-----------------------------------------------------------10\8-6-8-8b-6--------|
A#|-------------------------------------------------------------------------8-6----|


C |------------------------------------|
G |--------------8---------------------|
D#|--------------8---------------------|
A#|---------8--------------------------|
F |--6-8/10---10---~10-----------------|
A#|------------------------------------|


C |-----8-----8/13-11-10----10-------11------11-11-11-13-13--11-11-15-15--11-11-11-13-13--11-11-11-|
G |--/8---8--------------11----11-13-----13--11-11-11-11-11--11-11-11-11--11-11-11-11-11--11-11-11-|
D#|---------0--------------------------------------------------------------------------------------|
A#|------------------------------------------------------------------------------------------------|
F |------------------------------------------------------------------------------------------------|
A#|------------------------------------------------------------------------------------------------|


C |--10b------------11-----8----8------8-----------8-----------------------------------|
G |------11------------10b---11----11b---8-11------------------------------------------|
D#|---------10-8-7-----------------------------10b---8-10--10-10-8-10-------\\\--------|
A#|-------------------------------------------------------------------------\\\--------|
F |-------------------------------------------------------------------------\\\--------|
A#|-------------------------------------------------------------------------\\\--------|


C |--15-14-12-10--11-10-----------------------------------------17b19------------------|
G |---------------------13-11-10-------------------------------------------------------|
D#|-------------------------------12-10-9----------------------------------\\\---------|
A#|---------------------------------------12-10-9--------------------------\\\---------|
F |-----------------------------------------------12-10-9------------------\\\---------|
A#|-------------------------------------------------------12-10------------\\\---------|

CHORUS x1

C |----------------------------------|
G |----------------------------------|
D#|----------------------------------|
A#|---7---9---11--12-----------------|x2
F |---5---7---9---10----5-7-5-8-7----|
A#|----------------------------------|            
Submit corrections


        Trouble lessons Hard to play? Try these video lessons and learn fast Trouble lessons
        
↑ Back to top | Tablatures and chords for acoustic guitar and electric guitar, ukulele, drums are parodies/interpretations of the original songs. You may use it for private study, scholarship, research or language learning purposes only