» » »

Five Finger Death Punch - This Is My War Tabs

Artists:  A B C D E F G H I J K L M N O P Q R S T U V W X Y Z # 

This Is My War Tabs

(ver. 1) Click to play this song!
Five Finger Death Punch
 Rating:
2.6/5 (28 votes)

 This Is My War  lessons Tabs too difficult? Try these video lessons and learn fast
 
                |--------------------------------------------------------------------------------------------------------|
|                                          INTRO (00:00-00:20)                                           |
|--------------------------------------------------------------------------------------------------------|

Guitars 1 and 2 (w/ dist)
                                                      -------------|
 B|----------------------------|-------------------------|         |
F#|----------------------------|-------------------------|         |
 D|----------------------------|-------------------------|         |
 A|----------------------------|-------------------------|         |
 E|----5----3----5--5------3h5-|----5----3----5--5----8~~|         |
 A|-0-----0----0-------0-0-----|-0-----0----0-------0----|         |
          *    *       * *             *    *       *              | x2
 B|----------------------------|----------------------------|      |
F#|----------------------------|----------------------------|      |
 D|----------------------------|----------------------------|      |
 A|----------------------------|-------------------7--------|      |
 E|~---5----3----5--5------3h5-|----5----3---/s7-8---8---7~~|      |
 A|-0-----0----0-------0-0-----|-0-----0----0----------0----|      |
          *    *       * *             *    *          *  ---------|

|--------------------------------------------------------------------------------------------------------|
|                                          VERSE (00:20-00:37)                                           |
|--------------------------------------------------------------------------------------------------------|

Guitars 1 and 2 (w/ dist)

 B|---------------------------------|--------------------------------|
F#|---------------------------------|--------------------------------|
 D|---------------------------------|--------------------------------|
 A|---------------------------------|--------------------------------|
 E|---------------------------------|--------------------------------|
 A|-0-0-0-0-0-0-0-0-0-0---0-0-0-0-0-|--0-0---0-0-0-0---0-0-0-0-0-0-0-|\
    * * * * * * * * * *   * * * * *    * *   * * * *   * * * * * * *   x2
 B|--------------------------------|---------------------------------|/
F#|--------------------------------|---------------------------------|
 D|--------------------------------|---------------------------------|
 A|--------------------------------|---------------------------------|
 E|--------------------------------|---------------------------------|
 A|--0---0-0---0---0---0-0---0-0-0-|---0-0---0-0-0-0---0-0-0-0-0-0-0-|
     *   * *   *   *   * *   * * *     * *   * * * *   * * * * * * *

|--------------------------------------------------------------------------------------------------------|
|                                        PRE-CHORUS (00:37-00:42)                                        |
|--------------------------------------------------------------------------------------------------------|

Guitars 1 and 2 (w/ dist)

    .............
 B|--------------|-----------------|
F#|--------------|-----------------|
 D|--------------|-----------------|
 A|---------10---|-8---8---8-------|
 E|-----8--------|-8---8---8-------|
 A|-8------------|-8---8---8-------|

|--------------------------------------------------------------------------------------------------------|
|                                          CHORUS (00:42-00:59)                                          |
|--------------------------------------------------------------------------------------------------------|

Guitars 1 and 2 (w/ dist)

 B|---------------------------|--------------------------|
F#|---------------------------|--------------------------|
 D|---------------------------|--------------------------|
 A|-0--0---------3--3---------|-5--5---------5--5--7--5--|
 E|-0--0--0-0--0-3--3--0-0--0-|-5--5--0-0--0-3--3--5--3--|
 A|-0--0--0-0--0-3--3--0-0--0-|-5--5--0-0--0-------------|\
          * *  *       * *  *         * *  *               x2
 B|---------------------------|--------------------------|/
F#|---------------------------|--------------------------|
 D|---------------------------|--------------------------|
 A|-0--0---------3--3---------|-5--5---------1----1----1-|
 E|-0--0--0-0--0-3--3--0-0--0-|-5--5--0-0--0-1--1-1--1-1-|
 A|-0--0--0-0--0-3--3--0-0--0-|-5--5--0-0--0-1--1-1--1-1-|
          * *  *       * *  *         * *  *    *    *

|--------------------------------------------------------------------------------------------------------|
|                                       POST-CHORUS (00:59-01:08)                                        |
|--------------------------------------------------------------------------------------------------------|

Guitars 1 and 2 (w/ dist)

 B|----------------------------|-------------------------|
F#|----------------------------|-------------------------|
 D|----------------------------|-------------------------|
 A|----------------------------|-------------------------|
 E|----5----3----5--5------3h5-|----5----3----5--5----8~~|
 A|-0-----0----0-------0-0-----|-0-----0----0-------0----|
          *    *       * *             *    *       *
 B|----------------------------|----------------------------|
F#|----------------------------|----------------------------|
 D|----------------------------|----------------------------|
 A|----------------------------|-------------------7--------|
 E|~---5----3----5--5------3h5-|----5----3---/s7-8---8---7~~|
 A|-0-----0----0-------0-0-----|-0-----0----0----------0----|
          *    *       * *             *    *          *

|--------------------------------------------------------------------------------------------------------|
|                                         VERSE 2 (01:08-01:25)                                          |
|--------------------------------------------------------------------------------------------------------|
                                              same as VERSE
|--------------------------------------------------------------------------------------------------------|
|                                       PRE-CHORUS 2 (01:25-01:30)                                       |
|--------------------------------------------------------------------------------------------------------|
                                           same as PRE-CHORUS
|--------------------------------------------------------------------------------------------------------|
|                                         CHORUS 2 (01:30-01:47)                                         |
|--------------------------------------------------------------------------------------------------------|
                                              same as CHORUS
|--------------------------------------------------------------------------------------------------------|
|                                          BRIDGE (01:47-02:22)                                          |
|--------------------------------------------------------------------------------------------------------|

Guitars 1 and 2 (w/ dist)

 B|------------------------------------------------|---------------------------------------|
F#|------------------------------------------------|---------------------------------------|
 D|------------------------------------------------|---------------------------------------|
 A|-----------------0-----------3---0-----------0--|-----------------0-----------3---------|
 E|-----------------0-----------3---0-----------0--|-----------------0-----------3---------|
 A|-0-0-0-0-0-0-0-0-0---0-0-0-0-3---0---0-0-0-0-0--|-0-0-0-0-0-0-0-0-0---0-0-0-0-3---------|\
    * * * * * * * *     * * * *         * * * *      * * * * * * * *     * * * *             x3
 B|-----------------------------------------------|----------------------------------------|/
F#|-----------------------------------------------|----------------------------------------|
 D|-----------------------------------------------|----------------------------------------|
 A|-----------------0-----------3---0---------1---|-------1---------1---------1------------|
 E|-----------------0-----------3---0---------1---|-1--1--1---1--1--1---1--1--1---1--1--1--|
 A|-0-0-0-0-0-0-0-0-0---0-0-0-0-3---0---0--0--1---|-1--1--1---1--1--1---1--1--1---1--1--1--|
    * * * * * * * *     * * * *         *  *        *  *      *  *      *  *      *  *    

 B|------------------------------------------------|---------------------------------------|
F#|------------------------------------------------|---------------------------------------|
 D|------------------------------------------------|---------------------------------------|
 A|-----------------0-----------3---0-----------0--|-----------------0-----------3---------|
 E|-----------------0-----------3---0-----------0--|-----------------0-----------3---------|
 A|-0-0-0-0-0-0-0-0-0---0-0-0-0-3---0---0-0-0-0-0--|-0-0-0-0-0-0-0-0-0---0-0-0-0-3---------|
    * * * * * * * *     * * * *         * * * *      * * * * * * * *     * * * *  
 B|-----------------------------------------------|----------------------------------------|
F#|-----------------------------------------------|----------------------------------------|
 D|-----------------------------------------------|----------------------------------------|
 A|-----------------0-----------3---0---------1---|-------1---------1----------------------|
 E|-----------------0-----------3---0---------1---|-1--1--1---1--1--1----------------------|
 A|-0-0-0-0-0-0-0-0-0---0-0-0-0-3---0---0--0--1---|-1--1--1---1--1--1----------------------|
    * * * * * * * *     * * * *         *  *        *  *      *  *          

|--------------------------------------------------------------------------------------------------------|
|                                         CHORUS 3 (02:22-02:41)                                         |
|--------------------------------------------------------------------------------------------------------|
                                             same as CHORUS
|--------------------------------------------------------------------------------------------------------|
|                                          OUTRO (02:41-02:55)                                           |
|--------------------------------------------------------------------------------------------------------|

Guitars 1 and 2 (w/ dist)

 B|----------------------------|-------------------------|----------------------------|
F#|----------------------------|-------------------------|----------------------------|
 D|----------------------------|-------------------------|----------------------------|
 A|----------------------------|-------------------------|----------------------------|
 E|----5----3----5--5------3h5-|----5----3----5--5----8~~|----5----3----5--5------3h5-|
 A|-0-----0----0-------0-0-----|-0-----0----0-------0----|-0-----0----0-------0-0-----|
          *    *       * *             *    *       *
 B|----------------------------|----------------------------|-------------------------|
F#|----------------------------|----------------------------|-------------------------|
 D|----------------------------|----------------------------|-------------------------|
 A|-------------------7--------|-------------------7--------|-------------------------|
 E|----5----3---/s7-8---8---7~~|----5----3---/s7-8---8---7~~|----5----3----5--5-------|
 A|-0-----0----0----------0----|-0-----0----0----------0----|-0-----0----0------------|
          *    *       * *             *    *          *            *    *

            
Submit corrections


        This Is My War  lessons Hard to play? Try these video lessons and learn fast This Is My War  lessons
        
↑ Back to top | Tablatures and chords for acoustic guitar and electric guitar, ukulele, drums are parodies/interpretations of the original songs. You may use it for private study, scholarship, research or language learning purposes only