» » »

Five Finger Death Punch - Sham Pain Tabs

Artists:  A B C D E F G H I J K L M N O P Q R S T U V W X Y Z # 

Sham Pain Tabs

(ver. 1) Click to play this song!
Five Finger Death Punch
 Rating:
4.3/5 (15 votes)

 Sham Pain lessons Tabs too difficult? Try these video lessons and learn fast
 
                INTRO

Gtr.1 Zoltan & Gtr.2 Jason
C#|-------------------------|-----------------------|-----------------------|----------------------|
G#|-------------------------|-----------------------|-----------------------|----------------------|
E |-------------------------|-----------------------|-----------------------|----------------------|
B |-------7--------7------8-|-------7-------8------5|-------7-------5------8|-------7-------8------| X2
F#|-------5--------3------6-|-------5-------6------3|-------5-------3------6|-------5-------6------|
B |-0-00-0---0-00-0--00000--|-0-00-0--0-00-0--00000-|-0-00-0--0-00-0--00000-|-0-00-0--0-00-0--76533|
    x xx x   x xx x  xxxxx    x xx x  x xx x  xxxxx   x xx x  x xx x  xxxxx   x xx x  x xx x  xxxxx
-------------------------------------------------------------------------------------------------------------

VERSE.2

Gtr.1 Zoltan

C#|------------------------|------------------------|------------------------|----------------------|
G#|------------------------|------------------------|------------------------|----------------------|
E |------------------------|------------------------|------------------------|----------------------|
B |------------------------|------------------------|------------------------|----------------------| X1
F#|-------7-------7------8-|--------7------8------5-|-------7-------5------8-|-------7-------8------|
B |-------5-------3------6-|--------5------6------3-|-------5-------3------6-|-------5-------6-76533|
                                                                                               xxxxx
C#|------------------------|------------------------|------------------------|----------------------|
G#|------------------------|------------------------|------------------------|----------------------|
E |------------------------|------------------------|------------------------|----------------------|
B |-------7-------7------8-|-------7-------8------5-|-------7-------5------8-|-------7-------8------| X1
F#|-------5-------3------6-|-------5-------6------3-|-------5-------3------6-|-------5-------6------|
B |-0-00-0--0-00-0--00000--|-0-00-0--0-00-0--00000--|-0-00-0--0-00-0--00000--|-0-00-0--0-00-0--76533|
    x xx x  x xx x  xxxxx    x xx x  x xx x  xxxxx    x xx x  x xx x  xxxxx    x xx x  x xx x  xxxxx
-------------------------------------------------------------------------------------------------------------

CHORUS.1

Gtr.1 Zoltan & Gtr.2 Jason
C#|------------------------|------------------------|------------------------|-----------------------|
G#|------------------------|------------------------|------------------------|-----------------------|
E |------------------------|------------------------|------------------------|-----------------------|
B |-5--5--5--5--5--5--5--5-|-0--0--0--0--0--0--0--0-|-3--3--3--3--3--3--3--3-|-5--5--5--5--5--5--5--5| X2
F#|-5--5--5--5--5--5--5--5-|-0--0--0--0--0--0--0--0-|-3--3--3--3--3--3--3--3-|-3--3--3--3--3--3--3--3|
B |-5--5--5--5--5--5--5--5-|-0--0--0--0--0--0--0--0-|-3--3--3--3--3--3--3--3-|-----------------------|

Gtr.3 Stian Antonsen (Optional, this I made to give my cover a signature)
C#|------------------------|------------------------|------------------------|-----------------------|
G#|------------------------|------------------------|------------------------|-----------------------|
E |-7--7--7--7--7--7--7--7-|-2--2--2--2--2--2--2--2-|-5--5--5--5--5--5--5--5-|-9--9--9--7--7--7--9--9|
B |------------------------|------------------------|------------------------|-----------------------| X2
F#|-5--5--5--5--5--5--5--5-|-0--0--0--0--0--0--0--0-|-3--3--3--3--3--3--3--3-|-7--7--7--5--5--5--7--7|
B |------------------------|------------------------|------------------------|-----------------------|

Gtr.4 Stian Antonsen (Optional, this I made to give my cover a signature)
C#|------------------------|-------------------------|------------------------|-----------------------|
G#|------------------------|-------------------------|------------------------|-----------------------|
E |-14-14-14-14-14-14-14-14|-10-10-10-10-10-14-14-12-|-9--9--9--9--9--9-10-10-|-9--9--9--7--7--7--9--9| X2
B |------------------------|-------------------------|------------------------|-----------------------|
F#|-12-12-12-12-12-12-12-12|-8--8--8--8--8--12-12-10-|-7--7--7--7--7--7--8--8-|-7--7--7--5--5--5--7---|
B |------------------------|-------------------------|------------------------|-----------------------|

Gtr.5 Clean Guitar (
C#|----------5-------------|----------1--------------|----------3-------------|-------------|
G#|----------8-------------|----------3--------------|----------6-------------|----------5--|
E |----------7-------------|----------2--------------|----------5-------------|----------5--|
B |------------------------|-------------------------|------------------------|---5------5--| X2
F#|---5--------------------|---0---------------------|---3--------------------|---3---------|
B |-5----------------------|-0-----------------------|-3----------------------|-------------|

All of these parts(Gtr.1,2,3,4,5) ends with:          on the last repetition.
                                             C#|-----|
                                             G#|-----|
                                             E |-----|
                                             B |-5---|
                                             F#|-5---|
                                             B |-5---|

-------------------------------------------------------------------------------------------------------------

Verse.2

Gtr.1 Zoltan & Gtr.2 Jason
C#|-------------------------|-----------------------|-----------------------|----------------------|
G#|-------------------------|-----------------------|-----------------------|----------------------|
E |-------------------------|-----------------------|-----------------------|----------------------|
B |-------7--------7------8-|-------7-------8------5|-------7-------5------8|-------7-------8------| X2
F#|-------5--------3------6-|-------5-------6------3|-------5-------3------6|-------5-------6------|
B |-0-00-0---0-00-0--00000--|-0-00-0--0-00-0--00000-|-0-00-0--0-00-0--00000-|-0-00-0--0-00-0--76533|
    x xx x   x xx x  xxxxx    x xx x  x xx x  xxxxx   x xx x  x xx x  xxxxx   x xx x  x xx x  xxxxx

-------------------------------------------------------------------------------------------------------------

CHORUS.2

Gtr.1 Zoltan & Gtr.2 Jason
C#|------------------------|------------------------|------------------------|-----------------------|
G#|------------------------|------------------------|------------------------|-----------------------|
E |------------------------|------------------------|------------------------|-----------------------|
B |-5--5--5--5--5--5--5--5-|-0--0--0--0--0--0--0--0-|-3--3--3--3--3--3--3--3-|-5--5--5--5--5--5--5--5| X2
F#|-5--5--5--5--5--5--5--5-|-0--0--0--0--0--0--0--0-|-3--3--3--3--3--3--3--3-|-3--3--3--3--3--3--3--3|
B |-5--5--5--5--5--5--5--5-|-0--0--0--0--0--0--0--0-|-3--3--3--3--3--3--3--3-|-----------------------|

Gtr.3 Stian Antonsen (Optional, this I made to give my cover a signature)
C#|------------------------|------------------------|------------------------|-----------------------|
G#|------------------------|------------------------|------------------------|-----------------------|
E |-7--7--7--7--7--7--7--7-|-2--2--2--2--2--2--2--2-|-5--5--5--5--5--5--5--5-|-9--9--9--7--7--7--9--9|
B |------------------------|------------------------|------------------------|-----------------------| X2
F#|-5--5--5--5--5--5--5--5-|-0--0--0--0--0--0--0--0-|-3--3--3--3--3--3--3--3-|-7--7--7--5--5--5--7--7|
B |------------------------|------------------------|------------------------|-----------------------|

Gtr.4 Stian Antonsen (Optional, this I made to give my cover a signature)
C#|------------------------|-------------------------|------------------------|-----------------------|
G#|------------------------|-------------------------|------------------------|-----------------------|
E |-14-14-14-14-14-14-14-14|-10-10-10-10-10-14-14-12-|-9--9--9--9--9--9-10-10-|-9--9--9--7--7--7--9--9| X2
B |------------------------|-------------------------|------------------------|-----------------------|
F#|-12-12-12-12-12-12-12-12|-8--8--8--8--8--12-12-10-|-7--7--7--7--7--7--8--8-|-7--7--7--5--5--5--7---|
B |------------------------|-------------------------|------------------------|-----------------------|

Gtr.5 Clean Guitar (
C#|----------5-------------|----------1--------------|----------3-------------|-------------|
G#|----------8-------------|----------3--------------|----------6-------------|----------5--|
E |----------7-------------|----------2--------------|----------5-------------|----------5--|
B |------------------------|-------------------------|------------------------|---5------5--| X2
F#|---5--------------------|---0---------------------|---3--------------------|---3---------|
B |-5----------------------|-0-----------------------|-3----------------------|-------------|

All of these parts(Gtr.1,2,3,4,5) ends with:          on the last repetition.
                                             C#|-----|
                                             G#|-----|
                                             E |-----|
                                             B |-5---|
                                             F#|-5---|
                                             B |-5---|

-------------------------------------------------------------------------------------------------------------

SOLO


Gtr.1 Zoltan
C#|-------------------------|-----------------------|-----------------------|----------------------|
G#|-------------------------|-----------------------|-----------------------|----------------------|
E |-------------------------|-----------------------|-----------------------|----------------------|
B |-------7--------7------8-|-------7-------8------5|-------7-------5------8|-------7-------8------| X2
F#|-------5--------3------6-|-------5-------6------3|-------5-------3------6|-------5-------6------|
B |-0-00-0---0-00-0--00000--|-0-00-0--0-00-0--00000-|-0-00-0--0-00-0--00000-|-0-00-0--0-00-0--76533|
    x xx x   x xx x  xxxxx    x xx x  x xx x  xxxxx   x xx x  x xx x  xxxxx   x xx x  x xx x  xxxxx


Gtr.2 Jason

C#|------------------------------------------------------------------------------------------|
G#|-----------------------------------10p.h-11p.h-10p.h--------------------------------------|
E |----12W.B.Dive\\\\----------14~~~~--------------------12B(13--14-12)p10----10-12/14~~~~---|
B |----12W.B.Dive\\\\-12----12---------------------------------------------12----------------|
F#|----------------------15------------------------------------------------------------------|
B |------------------------------------------------------------------------------------------|

C#|-13-10------------------------------------------------------------------------------------|
E |-------13-10----13------------------------------------------------------------------------|
E |-------------12----12-10-12-10------------------------------------------------------------|
B |-------------------------------12-10-12-10-------------------------12~~~~-----------------|
F#|-------------------------------------------12-10-12-10------------------------------------|
B |-------------------------------------------------------12-10-12-10------------------------|

C#|--------------------------------------------10-12-13-12-10---------------------------------|
G#|----------------------------------15B(18)------------------13/15\13p10--10-13/15\13p10--10-|
E |----------10-12-14-12-10----10-12-------------------------------------12--------------12---|
B |-10-12-14----------------14----------------------------------------------------------------|
F#|-------------------------------------------------------------------------------------------|
B |-------------------------------------------------------------------------------------------|

C#|-17-15-13----------15-13-12----------------------------------------------------------------|
G#|----------17-15-13----------15-13-11-------------------------------------------------------|
E |-------------------------------------14-12-10----------14-12-10----------------------------|
B |----------------------------------------------14-12-10----------14-12-10-12~~~~------------|
F#|-------------------------------------------------------------------------------------------|
B |-------------------------------------------------------------------------------------------|

-------------------------------------------------------------------------------------------------------------

MID SECTION AFTER SOLO


Gtr.1 Zoltan

C#|------------------------|------------------------|------------------------|----------------------|
G#|------------------------|------------------------|------------------------|----------------------|
E |------------------------|------------------------|------------------------|----------------------|
B |------------------------|------------------------|------------------------|----------------------| X1
F#|-------7-------7------8-|--------7------8------5-|-------7-------5------8-|-------7-------8------|
B |-------5-------3------6-|--------5------6------3-|-------5-------3------6-|-------5-------6-76533|
                                                                                               xxxxx

-------------------------------------------------------------------------------------------------------------

CLEAN SECTION BEFORE LAST CHORUS


Gtr.1

C#|----------5-------------|----------1--------------|----------3-------------|-------------|
G#|----------8-------------|----------3--------------|----------6-------------|----------5--|
E |----------7-------------|----------2--------------|----------5-------------|----------5--|
B |------------------------|-------------------------|------------------------|---5------5--| X1
F#|---5--------------------|---0---------------------|---3--------------------|---3---------|
B |-5----------------------|-0-----------------------|-3----------------------|-------------|


Gtr.2 Stian Antonsen (Optional, this I made to give my cover a signature)

C#|-------------------------------------------------------------------------------------|
G#|-------------------------------------------------------------------------------------|
E |-------------------------------------------------------------------------------------|
B |-12--12\7~~~-5--7/10~~\7-5-----------------------------------------------------------|
F#|---------------------------7--5--7--5------------------------------------------------|
B |-------------------------------------------------------------------------------------|


Gtr.3 Stian Antonsen (Optional, this I made to give my cover a signature)

C#|------------------------------------------------------------------------------------|
G#|------------------------------------------------------------------------------------|
E |-14--14\10~~~14-12-9~~10-9----------------------------------------------------------|
B |---------------------------10/12-12-12----------------------------------------------|
F#|------------------------------------------------------------------------------------|
B |------------------------------------------------------------------------------------|


Gtr.4 Stian Antonsen (Optional, this I made to give my cover a signature)

C#|--------------------------------------------------------------------------------|
G#|--------------------------------------------------------------------------------|
E |-19~~19\14~~~~~~----------------------------------------------------------------|
B |--------------------------------------------------------------------------------|
F#|--------------------------------------------------------------------------------|
B |--------------------------------------------------------------------------------|

-------------------------------------------------------------------------------------------------------------



CHORUS.3

Gtr.1 Zoltan & Gtr.2 Jason
C#|------------------------|------------------------|------------------------|-----------------------|
G#|------------------------|------------------------|------------------------|-----------------------|
E |------------------------|------------------------|------------------------|-----------------------|
B |-5--5--5--5--5--5--5--5-|-0--0--0--0--0--0--0--0-|-3--3--3--3--3--3--3--3-|-5--5--5--5--5--5--5--5| X2
F#|-5--5--5--5--5--5--5--5-|-0--0--0--0--0--0--0--0-|-3--3--3--3--3--3--3--3-|-3--3--3--3--3--3--3--3|
B |-5--5--5--5--5--5--5--5-|-0--0--0--0--0--0--0--0-|-3--3--3--3--3--3--3--3-|-----------------------|

Gtr.3 Stian Antonsen (Optional, this I made to give my cover a signature)
C#|------------------------|------------------------|------------------------|-----------------------|
G#|------------------------|------------------------|------------------------|-----------------------|
E |-7--7--7--7--7--7--7--7-|-2--2--2--2--2--2--2--2-|-5--5--5--5--5--5--5--5-|-9--9--9--7--7--7--9--9|
B |------------------------|------------------------|------------------------|-----------------------| X2
F#|-5--5--5--5--5--5--5--5-|-0--0--0--0--0--0--0--0-|-3--3--3--3--3--3--3--3-|-7--7--7--5--5--5--7--7|
B |------------------------|------------------------|------------------------|-----------------------|

Gtr.4 Stian Antonsen (Optional, this I made to give my cover a signature)
C#|------------------------|-------------------------|------------------------|-----------------------|
G#|------------------------|-------------------------|------------------------|-----------------------|
E |-14-14-14-14-14-14-14-14|-10-10-10-10-10-14-14-12-|-9--9--9--9--9--9-10-10-|-9--9--9--7--7--7--9--9| X2
B |------------------------|-------------------------|------------------------|-----------------------|
F#|-12-12-12-12-12-12-12-12|-8--8--8--8--8--12-12-10-|-7--7--7--7--7--7--8--8-|-7--7--7--5--5--5--7---|
B |------------------------|-------------------------|------------------------|-----------------------|

Gtr.5 Clean Guitar (
C#|----------5-------------|----------1--------------|----------3-------------|-------------|
G#|----------8-------------|----------3--------------|----------6-------------|----------5--|
E |----------7-------------|----------2--------------|----------5-------------|----------5--|
B |------------------------|-------------------------|------------------------|---5------5--| X2
F#|---5--------------------|---0---------------------|---3--------------------|---3---------|
B |-5----------------------|-0-----------------------|-3----------------------|-------------|

All of these parts(Gtr.1,2,3,4,5) ends with:          on the last repetition.
                                             C#|-----|
                                             G#|-----|
                                             E |-----|
                                             B |-5---|
                                             F#|-5---|
                                             B |-5---|

-------------------------------------------------------------------------------------------------------------

OUTRO


Gtr.1 Zoltan
C#|-------------------------|-----------------------|-----------------------|------------------------|
G#|-------------------------|-----------------------|-----------------------|------------------------|
E |-------------------------|-----------------------|-----------------------|------------------------|
B |-------7--------7------8-|-------7-------8------5|-------7-------5------8|-------7-------8--------| X2
F#|-------5--------3------6-|-------5-------6------3|-------5-------3------6|-------5-------6--------|
B |-0-00-0---0-00-0--00000--|-0-00-0--0-00-0--00000-|-0-00-0--0-00-0--00000-|-0-00-0--0-00-0--76533--|
    x xx x   x xx x  xxxxx    x xx x  x xx x  xxxxx   x xx x  x xx x  xxxxx   x xx x  x xx x  xxxxx

Gtr.2 Jason
C#|---------------------------|-------------------------|--------------------------------------------------|
G#|---------------------------|-------------------------|--------10-13p10--------10-13p10-13-13B(-14--15-)-|
E |-12B(-13-12)p10 12B(-14-)--|--12p10------------------|------10---------12B(14)--------------------------|
B |---------------------------|--------12-10-12~~\\\\\--|-12-12--------------------------------------------|
F#|---------------------------|-------------------------|--------------------------------------------------|
B |---------------------------|-------------------------|--------------------------------------------------|

C#|---------------------------------------------------------------------------|
G#|---------------------------------------------------------------------------|
E |-12p10---------------------------------------------------------------------|
B |-------12p10\5---5-7--5----------------------------------------------------|
F#|---------------8--------8-5~~~~--------------------------------------------|
B |---------------------------------------------------------------------------|

C#|-13B-(15-15-15-15~~~~)p10---------------------------------------------------------------------------------|
G#|-------------------------13p10--10h13p10--10h13B~~~~p10---------------------------------------------------|
E |------------------------------12--------12-----------10-10------------------------------------------------|
B |----------------------------------------------------------12~10-12-10-12----------------------------------|
F#|-------------------------------------------------------------------------10-12-10-12-8-10-8-10------------|
B |----------------------------------------------------------------------------------------------8-10-8-10/12|            
Submit corrections


        Sham Pain lessons Hard to play? Try these video lessons and learn fast Sham Pain lessons
        
↑ Back to top | Tablatures and chords for acoustic guitar and electric guitar, ukulele, drums are parodies/interpretations of the original songs. You may use it for private study, scholarship, research or language learning purposes only