» » »

Five Finger Death Punch - No Sudden Movement Tabs

Artists:  A B C D E F G H I J K L M N O P Q R S T U V W X Y Z # 

No Sudden Movement Tabs

(ver. 1) Click to play this song!
Five Finger Death Punch
 Rating:
2/5 (26 votes)

 No Sudden Movement  lessons Tabs too difficult? Try these video lessons and learn fast
 
                |--------------------------------------------------------------------------------------------------------|
|                                          INTRO (00:00-00:31)                                           |
|--------------------------------------------------------------------------------------------------------|

I. Guitars 1 and 2 (w/ dist)

 B|------|--------|------|--------|------|--------|------|---------------------|
F#|------|--------|------|--------|------|--------|------|---------------------|
 D|------|--------|------|--------|------|--------|------|---------------------|
 A|------|--------|------|--------|------|--------|------|---------------------|
 E|-2----|-----3--|-2----|-----5--|-2----|-----3--|-2----|-2-------------------|
 B|-0----|-----1--|-0----|-----3--|-0----|-----1--|-0----|-0---0-0-0-0-0-0-0-0-|
                                                               * * * * * * * * 

   Guitar 3 (w/ dist)

 B|----------------------------------|-------------------------------|
F#|----------------------------------|-------------------------------|
 D|----------------------------------|-------------------------------|
 A|----------------------------------|-------------------------------|
 E|-5h7---------------------7h8-8h10-|-5h7---------------------3--3--|
 B|-----0-0-0-0-0-0-0-0-0-0----------|-----0-0-0-0-0-0-0-0-0-0-1--1--|
        * * * * * * * * * *                * * * * * * * * * *

 B|-------------------------------|---------------------------------|
F#|-------------------------------|---------------------------------|
 D|-------------------------------|---------------------------------|
 A|------------------------5-4----|---------------------------------|
 E|-2--------------------------5--|-5h7-----------------------------|
 B|-0--0-0-0-0-0-0-0-0-0-0--------|-----0-0-0-0-0-0-0-0-0-0-0-0-0-0-|
       * * * * * * * * * *              * * * * * * * * * * * * * *

II. Guitars 1 and 2 (w/ dist)

 B|----------------------------------|-------------------------------|
F#|----------------------------------|-------------------------------|
 D|----------------------------------|-------------------------------|
 A|----------------------------------|-------------------------------|
 E|-5h7---------------------7h8-8h10-|-5h7---------------------3--3--|
 B|-----0-0-0-0-0-0-0-0-0-0----------|-----0-0-0-0-0-0-0-0-0-0-1--1--|\
        * * * * * * * * * *                * * * * * * * * * *         x2
 B|---------------------------------|--------------------------------|/
F#|---------------------------------|--------------------------------|
 D|---------------------------------|--------------------------------|
 A|---------------------------------|-------------------------5-4----|
 E|-2----------------------7h8-8h10-|-5h7-------------------------5--|
 B|-0--0-0-0-0-0-0-0-0-0-0----------|-----0-0-0-0-0-0-0-0-0-0--------|
       * * * * * * * * * *                * * * * * * * * * *

|--------------------------------------------------------------------------------------------------------|
|                                          VERSE (00:31-00:47)                                           |
|--------------------------------------------------------------------------------------------------------|

Guitars 1 and 2 (w/ dist)

 B|----------------------|----------------------|----------------------|------------------------|
F#|----------------------|----------------------|----------------------|------------------------|
 D|----------------------|----------------------|----------------------|------------------------|
 A|----------------------|----------------------|----------------------|------------------------|
 E|-2---2---2---2---3--3-|-2---2---2---2---5--5-|-2---2---2---2---3--3-|-2---2---2---2--2--5--5-|
 B|-0---0---0---0---1--1-|-0---0---0---0---3--3-|-0---0---0---0---1--1-|-0---0---0---0--0--3--3-|
    *   *   *   *   *  *   *   *   *   *   *  *   *   *   *   *   *  *   *   *   *   *  *  *  *
                                     
|--------------------------------------------------------------------------------------------------------|
|                                        PRE-CHORUS (00:47-00:59)                                        |
|--------------------------------------------------------------------------------------------------------|

Guitars 1 and 2 (w/ dist)

 B|---------------------------------|---------------------------------|
F#|---------------------------------|---------------------------------|
 D|---------------------------------|---------------------------------|
 A|---------------------------------|---------------------------------|
 E|---------------------------------|---------------------------------|
 B|-3-3-3-3-3-3-3-3-3-3-3-3-3-3-3-3-|-1-1-1-1-1-1-1-1-1-1-1-1-1-1-1-1-|

 B|----------------------------------|--------------------------------|
F#|----------------------------------|--------------------------------|
 D|----------------------------------|--------------------------------|
 A|----------------------------------|-------------------------5-4----|
 E|-5h7---------------------7h8-8h10-|-5h7-------------------------5--|
 B|-----0-0-0-0-0-0-0-0-0-0----------|-----0-0-0-0-0-0-0-0-0-0--------|
        * * * * * * * * * *                * * * * * * * * * *

 B|---------------------------------|---------------------------------|
F#|---------------------------------|---------------------------------|
 D|---------------------------------|---------------------------------|
 A|---------------------------------|---------------------------------|
 E|---------------------------------|---------------------------------|
 B|-3-3-3-3-3-3-3-3-3-3-3-3-3-3-3-3-|-1-1-1-1-1-1-1-1-1-1-1-1-1-1-1-1-|

|--------------------------------------------------------------------------------------------------------|
|                                          CHORUS (00:59-01:15)                                          |
|--------------------------------------------------------------------------------------------------------|

Guitars 1 and 2 (w/ dist)

 B|----------------------------------|--------------------------------|
F#|----------------------------------|--------------------------------|
 D|----------------------------------|--------------------------12----|
 A|-10s9---10s9---7s9----------------|-10s9---10s9---7s9--------12----|
 E|-8-s7---8-s7---5s7----------------|-8-s7---8-s7---5s7--------10----|
 B|------0------0-----0-0--0-0-0-0-0-|------0------0-----0-0--0-------|
         *      *     * *  * * * * *        *      *     * *  *
 B|----------------------------------|--------------------------------|
F#|----------------------------------|--------------------------------|
 D|----------------------------------|--------------------------------|
 A|-10s9---10s9---7s9----------------|-10s9---10s9---7s9--------3-----|
 E|-8-s7---8-s7---5s7----------------|-8-s7---8-s7---5s7--------3-----|
 B|------0------0-----0-0--0-0-0-0-0-|------0------0-----0-0--0-1-----|
         *      *     * *  * * * * *        *      *     * *  *
 B|----------------------------------|--------------------------------|
F#|----------------------------------|--------------------------------|
 D|----------------------------------|--------------------------12----|
 A|-10s9---10s9---7s9----------------|-10s9---10s9---7s9--------12----|
 E|-8-s7---8-s7---5s7----------------|-8-s7---8-s7---5s7--------10----|
 B|------0------0-----0-0--0-0-0-0-0-|------0------0-----0-0--0-------|
         *      *     * *  * * * * *        *      *     * *  * 
 B|----------------------------------|--------------------------------|
F#|----------------------------------|--------------------------------|
 D|----------------------------------|--------------------------------|
 A|-10s9---10s9---7s9----------------|-10s9---10s9---7s9--------------|
 E|-8-s7---8-s7---5s7----------------|-8-s7---8-s7---5s7--------------|
 B|------0------0-----0-0--0-0-0-0-0-|------0------0-----0-0----------|
         *      *     * *  * * * * *        *      *     * * 

|--------------------------------------------------------------------------------------------------------|
|                                       POST-CHORUS (01:15-01:22)                                        |
|--------------------------------------------------------------------------------------------------------|

Guitars 1 and 2 (w/ dist)

 B|----------------------------------|-------------------------------|
F#|----------------------------------|-------------------------------|
 D|----------------------------------|-------------------------------|
 A|----------------------------------|-------------------------------|
 E|-5h7---------------------7h8-8h10-|-5h7---------------------3--3--|
 B|-----0-0-0-0-0-0-0-0-0-0----------|-----0-0-0-0-0-0-0-0-0-0-1--1--|
        * * * * * * * * * *                * * * * * * * * * *  
 B|---------------------------------|--------------------------------|
F#|---------------------------------|--------------------------------|
 D|---------------------------------|--------------------------------|
 A|---------------------------------|-------------------------5-4----|
 E|-2----------------------7h8-8h10-|-5h7-------------------------5--|
 B|-0--0-0-0-0-0-0-0-0-0-0----------|-----0-0-0-0-0-0-0-0-0-0--------|
       * * * * * * * * * *                * * * * * * * * * *

|--------------------------------------------------------------------------------------------------------|
|                                         VERSE 2 (01:22-01:38)                                          |
|--------------------------------------------------------------------------------------------------------|
                                              same as VERSE
|--------------------------------------------------------------------------------------------------------|
|                                       PRE-CHORUS 2 (01:38-01:50)                                       |
|--------------------------------------------------------------------------------------------------------|
                                           same as PRE-CHORUS
|--------------------------------------------------------------------------------------------------------|
|                                         CHORUS 2 (01:50-02:06)                                         |
|--------------------------------------------------------------------------------------------------------|

Guitars 1 and 2 (w/ dist)

 B|----------------------------------|--------------------------------|
F#|----------------------------------|--------------------------------|
 D|----------------------------------|--------------------------12----|
 A|-10s9---10s9---7s9----------------|-10s9---10s9---7s9--------12----|
 E|-8-s7---8-s7---5s7----------------|-8-s7---8-s7---5s7--------10----|
 B|------0------0-----0-0--0-0-0-0-0-|------0------0-----0-0--0-------|\
         *      *     * *  * * * * *        *      *     * *  *         x2
 B|----------------------------------|--------------------------------|/
F#|----------------------------------|--------------------------------|
 D|----------------------------------|--------------------------------|
 A|-10s9---10s9---7s9----------------|-10s9---10s9---7s9--------3-----|
 E|-8-s7---8-s7---5s7----------------|-8-s7---8-s7---5s7--------3-----|
 B|------0------0-----0-0--0-0-0-0-0-|------0------0-----0-0--0-1-----|
         *      *     * *  * * * * *        *      *     * *  *

|--------------------------------------------------------------------------------------------------------|
|                                          BRIDGE (02:06-02:53)                                          |
|--------------------------------------------------------------------------------------------------------|

I. Guitars 1 and 2 (w/ dist)
                              ---------------|
 B|---------------------------------|        |
F#|---------------------------------|        |
 D|---------------------------------| x3     |
 A|---------------9s11---------9s11-|        |
 E|-----5--4------7s9----9-----7s9--|        |
 B|-0-0-3--2--0-0------0---0-0------|        |
    * *       * *      *   * *               |
                                             | x2
 B|-------------------------------|          |
F#|-------------------------------|          |
 D|-----------------------7s9-----|          |
 A|-----------------------5s7-----|          |
 E|-----5--4------7s5-------------|          |
 B|-0-0-3--2--0-0-5s3-0-0-----0-0-|          |
    * *       * *     * *     * * -----------|

 B|---------------------------------|---------------------------------|
F#|---------------------------------|---------------------------------|
 D|---------------------------------|---------------------------------|
 A|---------------------------------|---------------------------------|
 E|---------------------------------|---------------------------------|
 B|-5-5-5-5-5-5-5-5-5-5-5-5-5-5-5-5-|-3-3-3-3-3-3-3-3-3-3-3-3-3-3-3-3-|

 B|----------------------------------|---------------------------------|
F#|----------------------------------|---------------------------------|
 D|----------------------------------|-------------------------7s9-----|
 A|-----------------9s11-------------|-------------------------5s7-----|
 E|-7h9-------------7s9----9---------|-7h9-------------7s5-------------|
 B|-----0-0-0-0-0-0------0---0-0-7h9-|-----0-0-0-0-0-0-5s3-0-0-----0-0-|
        * * * * * *      *   * *           * * * * * *     * *     * *
 B|---------------------------------|---------------------------------|
F#|---------------------------------|---------------------------------|
 D|---------------------------------|---------------------------------|
 A|---------------------------------|---------------------------------|
 E|---------------------------------|---------------------------------|
 B|-5-5-5-5-5-5-5-5-5-5-5-5-5-5-5-5-|-3-3-3-3-3-3-3-3-3-3-3-3-3-3-3-3-|

 B|----------------------------------|---------------------------------|
F#|----------------------------------|---------------------------------|
 D|----------------------------------|---------------------------------|
 A|-----------------9s11-------------|-------------------------7s4-----|
 E|-7h9-------------7s9----9---------|-7h9-------------5s4-----5s2-----|
 B|-----0-0-0-0-0-0------0---0-0-7h9-|-----0-0-0-0-0-0-3s2-0-0-----0-0-|
        * * * * * *      *   * *           * * * * * *     * *     * *

II. Guitars 1 and 2 (w/ dist)

 B|------|--------|------|--------|------|--------|------|---------------------|
F#|------|--------|------|--------|------|--------|------|---------------------|
 D|------|--------|------|--------|------|--------|------|---------------------|
 A|------|--------|------|--------|------|--------|------|---------------------|
 E|-2----|-----3--|-2----|-----5--|-2----|-----3--|-2----|-2-------------------|
 B|-0----|-----1--|-0----|-----3--|-0----|-----1--|-0----|-0---0-0-0-0-0-0-0-0-|
                                                               * * * * * * * * 

   Guitar 3 (w/ dist)

 B|----------------------------------|-------------------------------|
F#|----------------------------------|-------------------------------|
 D|----------------------------------|-------------------------------|
 A|----------------------------------|-------------------------------|
 E|-5h7---------------------7h8-8h10-|-5h7---------------------3--3--|
 B|-----0-0-0-0-0-0-0-0-0-0----------|-----0-0-0-0-0-0-0-0-0-0-1--1--|
        * * * * * * * * * *                * * * * * * * * * *

 B|-------------------------------|---------------------------------|
F#|-------------------------------|---------------------------------|
 D|-------------------------------|---------------------------------|
 A|------------------------5-4----|---------------------------------|
 E|-2--------------------------5--|-5h7-----------------------------|
 B|-0--0-0-0-0-0-0-0-0-0-0--------|-----0-0-0-0-0-0-0-0-0-0-0-0-0-0-|
       * * * * * * * * * *              * * * * * * * * * * * * * *

|--------------------------------------------------------------------------------------------------------|
|                                         CHORUS 3 (02:53-03:09)                                         |
|--------------------------------------------------------------------------------------------------------|
                                             same as CHORUS
|--------------------------------------------------------------------------------------------------------|
|                                          OUTRO (03:09-03:21)                                           |
|--------------------------------------------------------------------------------------------------------|

Guitars 1 and 2 (w/ dist)

 B|----------------------------------|-------------------------------|
F#|----------------------------------|-------------------------------|
 D|----------------------------------|-------------------------------|
 A|----------------------------------|-------------------------------|
 E|-5h7---------------------7h8-8h10-|-5h7---------------------3--3--|
 B|-----0-0-0-0-0-0-0-0-0-0----------|-----0-0-0-0-0-0-0-0-0-0-1--1--|
        * * * * * * * * * *                * * * * * * * * * * 
 B|---------------------------------|--------------------------------|
F#|---------------------------------|--------------------------------|
 D|---------------------------------|--------------------------------|
 A|---------------------------------|-------------------------5-4----|
 E|-2----------------------7h8-8h10-|-5h7-------------------------5--|
 B|-0--0-0-0-0-0-0-0-0-0-0----------|-----0-0-0-0-0-0-0-0-0-0--------|
       * * * * * * * * * *                * * * * * * * * * *
 B|--------|
F#|--------|
 D|--------|
 A|--------|
 E|-2------|
 B|-0------|


                 
Submit corrections


        No Sudden Movement  lessons Hard to play? Try these video lessons and learn fast No Sudden Movement  lessons
        
↑ Back to top | Tablatures and chords for acoustic guitar and electric guitar, ukulele, drums are parodies/interpretations of the original songs. You may use it for private study, scholarship, research or language learning purposes only