» » »

Five Finger Death Punch - Menace Tabs

Artists:  A B C D E F G H I J K L M N O P Q R S T U V W X Y Z # 

Menace Tabs

(ver. 1) Click to play this song!
Five Finger Death Punch
 Rating:
4/5 (4 votes)

 Menace  lessons Tabs too difficult? Try these video lessons and learn fast
 
                                                  Tuning: 6 string BEADF#B

-----------------------------------------------------------------------------------------
|                                    INTRO (00:00-00:13)                                |
-----------------------------------------------------------------------------------------

Guitars 1 and 2 (w/ dist)

 B|-------------------------------|--------------------------------|
F#|-------------------------------|--------------------------------|
 D|-------------------------------|--------------------------------|
 A|-------------------------------|--------------------------------|
 E|-------------------------------|--------------------------------|\
 B|-1--1--1--4--1--1---1--4--1--1-|-1--1--1--4--1--1---1--4--1--1--| \
    *  *  *  *  *  *   *  *  *  *   *  *  *  *  *  *   *  *  *  *     x2
 B|------------------------------------|----------------------------|/
F#|------------------------------------|----------------------------|
 D|------------------------------------|----------------------------|
 A|------------------------------------|----------------------------|
 E|------------------------------------|-------------------5----4---|
 B|-1--1--1--4--1--1--1--1--1--4--1--1-|-1--1--1--4--1--1--3----2---|
    *  *  *  *  *  *  *  *  *  *  *  *   *  *  *  *  *  *

-----------------------------------------------------------------------------------------
|                                   VERSE (00:13-00:33)                                 |
-----------------------------------------------------------------------------------------

Guitars 1 and 2 (w/ dist)

 B|-------------------------------|--------------------------------|
F#|-------------------------------|--------------------------------|
 D|-------------------------------|--------------------------------|
 A|-------------------------------|--------------------------------|
 E|-------------------------------|--------------------------------|\
 B|-1--1--1--4--1--1---1--4--1--1-|-1--1--1--4--1--1---1--4--1--1--| \
    *  *  *  *  *  *   *  *  *  *   *  *  *  *  *  *   *  *  *  *     x4
 B|------------------------------------|----------------------------|/
F#|------------------------------------|----------------------------|
 D|------------------------------------|----------------------------|
 A|------------------------------------|----------------------------|
 E|------------------------------------|-------------------5----4---|
 B|-1--1--1--4--1--1--1--1--1--4--1--1-|-1--1--1--4--1--1--3----2---|
    *  *  *  *  *  *  *  *  *  *  *  *   *  *  *  *  *  *

-----------------------------------------------------------------------------------------
|                                   CHORUS (00:33-00:53)                                |
-----------------------------------------------------------------------------------------

Guitars 1 and 2 (w/ dist)
                                                  -----------------------|
 B|------------------------|-------------------------|                   |
F#|------------------------|-------------------------|                   |
 D|------------------------|-------------------------|                   |
 A|------------------------|-5-----------------------|                   |
 E|-2-----7--7--7--7--7--7-|-3-----7--7--7--7--7--7--|                   |
 B|-0----------------------|-------------------------|                   |
          *  *  *  *  *  *         *  *  *  *  *  *                      | x4
 B|-----------------------|----------------------------------------|     |
F#|-----------------------|----------------------------------------|     |
 D|-----------------------|----------------------------------------|     |
 A|-----------------------|-10--10--10--9--9--9--7--7--7--5--5--5--|     |
 E|-7----7--7--7--7--7--7-|----------------------------------------|     |
 B|-5---------------------|----------------------------------------|     |
         *  *  *  *  *  *   *   *   *   *  *  *  *  *  *  *  *  * -------|

Guitar 3 (w/ dist)
   .......................................................................................
 B|-----------7---------|-----------7---------|-----------12--------|-----------12--------|
F#|------8---------8----|------8---------8----|------10--------10---|------10--------10---|
 D|-9-------------------|-9-------------------|-9-------------------|-9-------------------| x3
 A|---------------------|---------------------|---------------------|---------------------|
 E|---------------------|---------------------|---------------------|---------------------|
 B|---------------------|---------------------|---------------------|---------------------|
   ......................................................................................
 B|-----------7---------|-----------7---------|-----------12--------|--------------------|
F#|------8---------8----|------8---------8----|------10--------10---|--------------------|
 D|-9-------------------|-9-------------------|-9-------------------|--------------------|
 A|---------------------|---------------------|---------------------|--------------------|
 E|---------------------|---------------------|---------------------|--------------------|
 B|---------------------|---------------------|---------------------|--------------------|

-----------------------------------------------------------------------------------------
|                                   VERSE 2 (00:53-01:23)                               |
-----------------------------------------------------------------------------------------

Guitars 1 and 2 (w/ dist)

 B|-------------------------------|--------------------------------|
F#|-------------------------------|--------------------------------|
 D|-------------------------------|--------------------------------|
 A|-------------------------------|--------------------------------|
 E|-------------------------------|--------------------------------|\
 B|-1--1--1--4--1--1---1--4--1--1-|-1--1--1--4--1--1---1--4--1--1--| \
    *  *  *  *  *  *   *  *  *  *   *  *  *  *  *  *   *  *  *  *     x6
 B|------------------------------------|----------------------------|/
F#|------------------------------------|----------------------------|
 D|------------------------------------|----------------------------|
 A|------------------------------------|----------------------------|
 E|------------------------------------|-------------------5----4---|
 B|-1--1--1--4--1--1--1--1--1--4--1--1-|-1--1--1--4--1--1--3----2---|
    *  *  *  *  *  *  *  *  *  *  *  *   *  *  *  *  *  *
                                     
-----------------------------------------------------------------------------------------
|                                   CHORUS 2 (01:23-01:45)                              |
-----------------------------------------------------------------------------------------
                                       same as CHORUS
-----------------------------------------------------------------------------------------
|                                    BRIDGE (01:45-02:05)                               |
-----------------------------------------------------------------------------------------

Guitars 1 and 2 (w/ dist)

 B|-------------------------------|--------------------------------|
F#|-------------------------------|--------------------------------|
 D|-------------------------------|--------------------------------|
 A|-------------------------------|--------------------------------|
 E|-------------------------------|--------------------------------|
 B|-1--1--1--4--1--1---1--4--1--1-|-1--1--1--4--1--1---1--4--1--1--|
    *  *  *  *  *  *   *  *  *  *   *  *  *  *  *  *   *  *  *  *   
 B|------------------------------------|---------------------------|
F#|------------------------------------|---------------------------|
 D|------------------------------------|---------------------------|
 A|------------------------------------|---------------------------|
 E|------------------------------------|---------------------------|
 B|-1--1--1--4--1--1--1--1--1--4--1--1-|-1--1--1--4--1--1----------|
    *  *  *  *  *  *  *  *  *  *  *  *   *  *  *  *  *  *

 B|-------------------------------|--------------------------------|
F#|-------------------------------|--------------------------------|
 D|-------------------------------|--------------------------------|
 A|-------------------------------|--------------------------------|
 E|-------------------------------|--------------------------------|\
 B|-1--1--1--4--1--1---1--4--1--1-|-1--1--1--4--1--1---1--4--1--1--| \
    *  *  *  *  *  *   *  *  *  *   *  *  *  *  *  *   *  *  *  *     x2
 B|------------------------------------|----------------------------|/
F#|------------------------------------|----------------------------|
 D|------------------------------------|----------------------------|
 A|------------------------------------|----------------------------|
 E|------------------------------------|-------------------5----4---|
 B|-1--1--1--4--1--1--1--1--1--4--1--1-|-1--1--1--4--1--1--3----2---|
    *  *  *  *  *  *  *  *  *  *  *  *   *  *  *  *  *  *

 B|-------------------------------|--------------------------------|
F#|-------------------------------|--------------------------------|
 D|-------------------------------|--------------------------------|
 A|-------------------------------|--------------------------------|
 E|-------------------------------|--------------------------------|
 B|-1--1--1--4--1--1---1--4--1--1-|-1--1--1--4--1--1---1--4--1--1--|
    *  *  *  *  *  *   *  *  *  *   *  *  *  *  *  *   *  *  *  *   
 B|------------------------------------|---------------------------|
F#|------------------------------------|---------------------------|
 D|------------------------------------|---------------------------|
 A|------------------------------------|---------------------------|
 E|------------------------------------|---------------------------|
 B|-1--1--1--4--1--1--1--1--1--4--1--1-|-1--1--1--4--1--1--2b------|
    *  *  *  *  *  *  *  *  *  *  *  *   *  *  *  *  *  *

-----------------------------------------------------------------------------------------
|                                     SOLO (02:05-02:25)                                |
-----------------------------------------------------------------------------------------

Guitars 1 and 2 (w/ dist) - Rhythm over SOLO

 B|-------------------------------|--------------------------------|
F#|-------------------------------|--------------------------------|
 D|-------------------------------|--------------------------------|
 A|-------------------------------|--------------------------------|
 E|-------------------------------|--------------------------------|\
 B|-2--2--2--5--2--2---2--5--2--2-|-2--2--2--5--2--2---2--5--2--2--| \
    *  *  *  *  *  *   *  *  *  *   *  *  *  *  *  *   *  *  *  *     x4
 B|------------------------------------|----------------------------|/
F#|------------------------------------|----------------------------|
 D|------------------------------------|----------------------------|
 A|------------------------------------|----------------------------|
 E|------------------------------------|-------------------7----5---|
 B|-2--2--2--5--2--2--2--2--2--5--2--2-|-2--2--2--5--2--2--5----3---|
    *  *  *  *  *  *  *  *  *  *  *  *   *  *  *  *  *  * 
Guitar 3 (w/ dist and delay) - SOLO

 B|-------------------------|----------------------------------|-------------------------|
F#|-------------------14~~~~|----------------------------------|-------------------------|
 D|-------------------------|-------------------17-------------|-------------------16~~~~|
 A|-14h16-16-16-16-16-------|-14h16-16-16-16-16----16-16-16-16-|-14h16-16-16-16-16-------|
 E|-------------------------|----------------------------------|-------------------------|
 B|-------------------------|----------------------------------|-------------------------|
          *  *  *  *                *  *  *  *     *  *  *  *          *  *  *  *
 B|----------------------------------|-------------------------|----------------------------------|
F#|----------------------------------|-------------------14~~~~|----------------------------------|
 D|-17-17p16p14----16-16-16-14-------|-------------------------|-------------------17-------------|
 A|-------------16-------------16-14-|-14h16-16-16-16-16-------|-14h16-16-16-16-16----16-16-16-16-|
 E|----------------------------------|-------------------------|----------------------------------|
 B|----------------------------------|-------------------------|----------------------------------|
                   *  *  *                   *  *  *  *                *  *  *  *     *  *  *  *
 B|-------------------------|----------------------------------|-------14-----------------|
F#|-------------------------|----------------------------------|----------14-17b-r--b-----|
 D|-------------------16~~~~|-17-17p16-14----16-16-16-14-------|-16b-r--------------------|
 A|-14h16-16-16-16-16-------|-------------16-------------16-14-|--------------------------|
 E|-------------------------|----------------------------------|--------------------------|
 B|-------------------------|----------------------------------|--------------------------|
                                             *  *  * 
 B|-14----------------14-16-------17----|-16p15-14----14-------14-------------|
F#|----17-16-14-16-17-------17-14----14-|----------17----17p16----17-16-15-14-|
 D|-------------------------------------|-------------------------------------|
 A|-------------------------------------|-------------------------------------|
 E|-------------------------------------|-------------------------------------|
 B|-------------------------------------|-------------------------------------|

 B|-------------------------------------|-14----------------|------------------------------|
F#|----14-------14----------------------|----14-17b---r--14-|----14-------14---------------|
 D|-17----17p16----17-16-15-14----14s15-|-------------------|-17----17-17----17p16p14-16~~~|
 A|----------------------------16-------|-------------------|------------------------------|
 E|-------------------------------------|-------------------|------------------------------|
 B|-------------------------------------|-------------------|------------------------------|

 B|-21-20-19----------------------------|-------------------------------------|--------|
F#|----------22-19----------------------|-------------------------------------|--------|
 D|----------------21p20p18-17p16p14----|-------------------------------------|--------|
 A|----------------------------------16-|-14----------------------------------|--------|
 E|-------------------------------------|----16-15-14-12----14-13-12----------|--------|
 B|-------------------------------------|----------------14----------14-13-12-|-12-----|
                                                                     *  *  *

Guitar 4 (w/ dist and delay) - Extra guitar, harmony for SOLO

harmony for 4th and 8th bar:

 B|------------------------|
F#|------------------------|
 D|-5--5p4p2---4-4-4-2-----|
 A|----------4---------4-2-|
 E|------------------------|
 B|------------------------|

harmony for 5th bar:

 B|--------s21~~~~~s|
F#|-----------------|
 D|-----------------|
 A|-----------------|
 E|-----------------|
 B|-----------------|

harmony for 7th bar:

 B|--------s19~~~~~~|
F#|-----------------|
 D|-----------------|
 A|-----------------|
 E|-----------------|
 B|-----------------|

-----------------------------------------------------------------------------------------
|                                   CHORUS 3 (02:25-02:47)                              |
-----------------------------------------------------------------------------------------
                                       same as CHORUS
-----------------------------------------------------------------------------------------
|                                     OUTRO (02:47-03:31)                               |
-----------------------------------------------------------------------------------------

I. Guitars 1 and 2 (w/ dist)
                                                  -----------------------|
 B|------------------------|-------------------------|                   |
F#|------------------------|-------------------------|                   |
 D|------------------------|-------------------------|                   |
 A|------------------------|-5-----------------------|                   |
 E|-2-----7--7--7--7--7--7-|-3-----7--7--7--7--7--7--|                   |
 B|-0----------------------|-------------------------|                   |
          *  *  *  *  *  *         *  *  *  *  *  *                      | x4
 B|-----------------------|----------------------------------------|     |
F#|-----------------------|----------------------------------------|     |
 D|-----------------------|----------------------------------------|     |
 A|-----------------------|-10--10--10--9--9--9--7--7--7--5--5--5--|     |
 E|-7----7--7--7--7--7--7-|----------------------------------------|     |
 B|-5---------------------|----------------------------------------|     |
         *  *  *  *  *  *   *   *   *   *  *  *  *  *  *  *  *  * -------|

   Guitar 3 (w/ dist)
   .......................................................................................
 B|-----------7---------|-----------7---------|-----------12--------|-----------12--------|
F#|------8---------8----|------8---------8----|------10--------10---|------10--------10---|
 D|-9-------------------|-9-------------------|-9-------------------|-9-------------------| x3
 A|---------------------|---------------------|---------------------|---------------------|
 E|---------------------|---------------------|---------------------|---------------------|
 B|---------------------|---------------------|---------------------|---------------------|
   ......................................................................................
 B|-----------7---------|-----------7---------|-----------12--------|--------------------|
F#|------8---------8----|------8---------8----|------10--------10---|--------------------|
 D|-9-------------------|-9-------------------|-9-------------------|--------------------|
 A|---------------------|---------------------|---------------------|--------------------|
 E|---------------------|---------------------|---------------------|--------------------|
 B|---------------------|---------------------|---------------------|--------------------|

II.  Guitars 1 and 2 (w/ dist)

 B|-------------------------------|--------------------------------|
F#|-------------------------------|--------------------------------|
 D|-------------------------------|--------------------------------|
 A|-------------------------------|--------------------------------|
 E|-------------------------------|--------------------------------|\
 B|-1--1--1--4--1--1---1--4--1--1-|-1--1--1--4--1--1---1--4--1--1--| \
    *  *  *  *  *  *   *  *  *  *   *  *  *  *  *  *   *  *  *  *     x2
 B|------------------------------------|----------------------------|/
F#|------------------------------------|----------------------------|
 D|------------------------------------|----------------------------|
 A|------------------------------------|----------------------------|
 E|------------------------------------|-------------------5----4---|
 B|-1--1--1--4--1--1--1--1--1--4--1--1-|-1--1--1--4--1--1--3----2---|
    *  *  *  *  *  *  *  *  *  *  *  *   *  *  *  *  *  *

 B|-------------------------------|--------------------------------|
F#|-------------------------------|--------------------------------|
 D|-------------------------------|--------------------------------|
 A|-------------------------------|--------------------------------|
 E|-------------------------------|--------------------------------|
 B|-1--1--1--4--1--1---1--4--1--1-|-1--1--1--4--1--1---1--4--1--1--|
    *  *  *  *  *  *   *  *  *  *   *  *  *  *  *  *   *  *  *  *    
 B|------------------------------------|----------------------------|
F#|------------------------------------|----------------------------|
 D|------------------------------------|----------------------------|
 A|------------------------------------|----------------------------|
 E|------------------------------------|----------------------------|
 B|-1--1--1--4--1--1--1--1--1--4--1--1-|-1--1--1--4--1--1--3--2--2--|
    *  *  *  *  *  *  *  *  *  *  *  *   *  *  *  *  *  *  *  *  *

 B|-------------------------------|--------------------------------|
F#|-------------------------------|--------------------------------|
 D|-------------------------------|--------------------------------|
 A|-------------------------------|--------------------------------|
 E|-------------------------------|--------------------------------|
 B|-1--1--1--4--1--1---1--4--1--1-|-1--1--1--4--1--1---1--4--1--1--|
    *  *  *  *  *  *   *  *  *  *   *  *  *  *  *  *   *  *  *  *   
 B|------------------------------------|---------------------------|
F#|------------------------------------|---------------------------|
 D|------------------------------------|---------------------------|
 A|------------------------------------|---------------------------|
 E|------------------------------------|-------------------5-------|
 B|-1--1--1--4--1--1--1--1--1--4--1--1-|-1--1--1--4--1--1--3-------|
    *  *  *  *  *  *  *  *  *  *  *  *   *  *  *  *  *  *
            
Submit corrections


        Menace  lessons Hard to play? Try these video lessons and learn fast Menace  lessons
        
↑ Back to top | Tablatures and chords for acoustic guitar and electric guitar, ukulele, drums are parodies/interpretations of the original songs. You may use it for private study, scholarship, research or language learning purposes only