» » »

Five Finger Death Punch - Mama Said Knock You Out Tabs

Artists:  A B C D E F G H I J K L M N O P Q R S T U V W X Y Z # 

Mama Said Knock You Out Tabs

(ver. 1) Click to play this song!
Five Finger Death Punch
 Rating:
4.3/5 (12 votes)

 Mama Said Knock You Out lessons Tabs too difficult? Try these video lessons and learn fast
 
                  [Intro 1]

B |-------------------------|
F#|-------------------------|
D |-----------5----4--------|  3x
A |-4----7----5----4--------|
E |-4----7----3----2--------|
B |-2----5-------------2--2-|
PM                     .  .

B |---------------------|
F#|---------------------|
D |---------5-----------|
A |-4---7---5---4--4--4-|
E |-4---7---3---2--2--2-|
B |-2---5---------------|
PM              .  .  .

B |-------------------------|
F#|-------------------------|
D |-----------5----4--------|  4x
A |-4----7----5----4--------|
E |-4----7----3----2--------|
B |-2----5-------------2--2-|
PM                     .  .


  [Intro 2]

B |----------------------------|----------------------------|
F#|----------------------------|----------------------------|
D |----------------------------|----------------------------|
A |----------------------------|----------------------------|
E |-2--------------3-----------|-2--------------3-----------|
B |-0---0-0--3--2--1---2-2-2-2-|-0---0-0--3--2--1---2-2---2-|
PM      . .  .  .      . . . .       . .  .  .      . .   .

B |----------------------------|------------------|
F#|----------------------------|------------------|
D |----------------------------|------------------|
A |----------------------------|------------------|
E |-2--------------3-----------|-2--------------3-|
B |-0---0-0--3--2--1---2-2-2-2-|-0---0-0--3--2--1-|
PM      . .  .  .      . . . .


  [Verse]

B |----------------------------|----------------------------|
F#|----------------------------|----------------------------|
D |----------------------------|----------------------------|
A |----------------------------|----------------------------|
E |-2--------------3-----------|-2--------------3-----------|
B |-0---0-0--3--2--1---2-2-2-2-|-0---0-0--3--2--1---2-2---2-|
PM      . .  .  .      . . . .       . .  .  .      . .   .

B |----------------------------|---|
F#|----------------------------|---|
D |----------------------------|---|
A |----------------------------|---|
E |-2--------------3-----------|-2-|
B |-0---0-0--3--2--1---2-2-2-2-|-0-|
PM      . .  .  .      . . . .

B |----------------------------|----------------------------|
F#|----------------------------|----------------------------|
D |----------------------------|----------------------------|  3x
A |----------------------------|----------------------------|
E |-2---2-2--5--4--3-----------|-2---2-2--5--4--3-----------|
B |-0---0-0--3--2--1---2-2-2-2-|-0---0-0--3--2--1---2-2---2-|
PM      . .  .  .      . . . .       . .  .  .      . .   .

B |----------------------------|---------|
F#|----------------------------|---------|
D |----------------------------|---------|
A |----------------------------|---------|
E |-2---2-2--5--4--3-----------|-2--2--2-|
B |-0---0-0--3--2--1---2-2-2-2-|-0--0--0-|


  [Chorus]

B |-------------------------|
F#|-------------------------|
D |-----------5----4--------|  3x
A |-4----7----5----4--------|
E |-4----7----3----2--------|
B |-2----5-------------2--2-|
PM                     .  .

B |---------------------|
F#|---------------------|
D |---------5-----------|
A |-4---7---5---4--4--4-|
E |-4---7---3---2--2--2-|
B |-2---5---------------|
PM              .  .  .

B |-------------------------|
F#|-------------------------|
D |-----------5----4--------|  3x
A |-4----7----5----4--------|
E |-4----7----3----2--------|
B |-2----5-------------2--2-|
PM                     .  .

B |-------------------------|----------------------------------|
F#|-------------------------|----------------------------------|
D |-----------5----4--------|-----------5----------------------|
A |-4----7----5----4--------|-4----7----5----------------------|
E |-4----7----3----2--------|-4----7----3----------------------|
B |-2----5-------------2--2-|-2----5---------12-10-9-8-6-4-3-1-|
PM                     .  .                  .  .  . . . . . .


  [Verse]

B |----------------------------|----------------------------|
F#|----------------------------|----------------------------|
D |----------------------------|----------------------------|
A |----------------------------|----------------------------|
E |-2--------------3-----------|-2--------------3-----------|
B |-0---0-0--3--2--1---2-2-2-2-|-0---0-0--3--2--1---2-2---2-|
PM      . .  .  .      . . . .       . .  .  .      . .   .

B |----------------------------|--------|
F#|----------------------------|--------|
D |----------------------------|--------|
A |----------------------------|--------|
E |-2--------------3-----------|-2------|
B |-0---0-0--3--2--1---2-2-2-2-|-0---0-0|
PM      . .  .  .      . . . .       . .

B |----------------------------|----------------------------|
F#|----------------------------|----------------------------|
D |----------------------------|----------------------------|  2x
A |----------------------------|----------------------------|
E |-2---2-2--5--4--3-----------|-2---2-2--5--4--3-----------|
B |-0---0-0--3--2--1---2-2-2-2-|-0---0-0--3--2--1---2-2---2-|
PM      . .  .  .      . . . .       . .  .  .      . .   .

B |----------------------------|--------|
F#|----------------------------|--------|
D |----------------------------|--------|
A |----------------------------|--------|
E |-2---2-2--5--4--3-----------|-2------|
B |-0---0-0--3--2--1---2-2-2-2-|-0---0-0|
PM      . .  .  .      . . . .       . .


  [Chorus]

B |-------------------------|
F#|-------------------------|
D |-----------5----4--------|  3x
A |-4----7----5----4--------|
E |-4----7----3----2--------|
B |-2----5-------------2--2-|
PM                     .  .

B |---------------------|
F#|---------------------|
D |---------5-----------|
A |-4---7---5---4--4--4-|
E |-4---7---3---2--2--2-|
B |-2---5---------------|
PM              .  .  .

B |-------------------------|
F#|-------------------------|
D |-----------5----4--------|  3x
A |-4----7----5----4--------|
E |-4----7----3----2--------|
B |-2----5-------------2--2-|
PM                     .  .

B |-------------------------|-------------|
F#|-------------------------|-------------|
D |-----------5----4--------|-----------5-|
A |-4----7----5----4--------|-4----7----5-|
E |-4----7----3----2--------|-4----7----3-|
B |-2----5-------------2--2-|-2----5------|
PM                     .  .


  [Bridge]

B |-----------------------------------|-----------------------------------|
F#|-----------------------------------|-----------------------------------|
D |-----------------------------------|-------------------------11------9-|  x2
A |-----------------------------------|-------------------------11------9-|
E |----------10--10-10-9-9--9--7-7--7-|----------10--10-10-9-9--9--7-7--7-|
B |-9-9--12---------------------------|-9-9--12---------------------------|
PM               .  .  . .  .  . .  .                .  .  . .     . .

B |-----------------------------------|-----------------------------------|
F#|-----------------------------------|-----------------------------------|
D |----------12-------------11------9-|----------12-------------11------9-|  x2
A |----------12-------------11------9-|----------12-------------11------9-|
E |----------10--10-10-9-9--9--7-7--7-|----------10--10-10-9-9--9--7-7--7-|
B |-9-9--12---------------------------|-9-9--12---------------------------|
PM               .  .  . .     . .                   .  .  . .     . .

B |-------------------------------------|
F#|-------------------------------------|
D |-------------------------------------|
A |----9--12--12-12-12-12-12\11-9-9-9-9-|
E |-11-7--10--10-10-10-10-10\9--7-7-7-7-|
B |-9-----------------------------------|
PM                              . . . .


  [Final Chorus]

B |-------------------------|
F#|-------------------------|
D |-----------7----6--------|  8x
A |-6----9----7----6--------|
E |-6----9----5----4--------|
B |-4----7-------------4--4-|
PM                     .  .


  [Outro]

B |-------|-------|-------|-------|
F#|-------|-------|-------|-------|
D |-------|-------|-------|-------|
A |-------|-------|-------|-6-6-6-|
E |-------|-6-6-6-|-6-6-6-|-6-6-6-|
B |-4-4-4-|-4-4-4-|-4-4-4-|-4-4-4-|
PM  . . .   . . .   . . .               
Submit corrections


        Mama Said Knock You Out lessons Hard to play? Try these video lessons and learn fast Mama Said Knock You Out lessons
        
↑ Back to top | Tablatures and chords for acoustic guitar and electric guitar, ukulele, drums are parodies/interpretations of the original songs. You may use it for private study, scholarship, research or language learning purposes only