» » »

Five Finger Death Punch - Hell To Pay Tabs

Artists:  A B C D E F G H I J K L M N O P Q R S T U V W X Y Z # 

Hell To Pay Tabs

(ver. 1) Click to play this song!
Five Finger Death Punch
 Rating:
3.5/5 (26 votes)

 Hell To Pay  lessons Tabs too difficult? Try these video lessons and learn fast
 
                |--------------------------------------------------------------------------------------------------------|
|                                          INTRO (00:00-00:15)                                           |
|--------------------------------------------------------------------------------------------------------|

I. Guitar 1 (w/ dist) - Fade in

    П     П  П  П  П  П  П  П  П  П  П  П  П  П      П     П  П  П  П  П  П  П  П  П  П  П
 B|------------------------------------------------|--------------------------------------------|
F#|------------------------------------------------|--------------------------------------------|
 D|------------------------------------------------|--------------------------------------------|
 A|------------------------------------------------|--------------------------------------------|
 E|-2-h4--------4--------4-----4--------------5-s4-|-2-h4--------4--------4-----4---------------|
 B|-0-h2--2--2--2--2--2--2--2--2--2--2--2--2--3-s2-|-0-h2--2--2--2--2--2--2--2--2--2--2--2------|
          *  *     *  *     *     *  *  *  *               *  *     *  *     *     *  *  *

II. Guitars 1 and 2 (w/ dist)

    П     П  П  П  П  П  П  П  П  П  П  П  П  П           П     П  П  П  П  П  П
 B|------------------------------------------------|    |------------------------------|
F#|------------------------------------------------|    |------------------------------|
 D|------------------------------------------------| x3 |------------------------------|
 A|------------------------------------------------|    |------------------------------|
 E|-2-h4--------4--------4-----4--------------5-s4-|    |-2-h4--------4--------4-------|
 B|-0-h2--2--2--2--2--2--2--2--2--2--2--2--2--3-s2-|    |-0-h2--2--2--2--2--2--2-------|
          *  *     *  *     *     *  *  *  *                    *  *     *  *

III. Guitar 1 (w/ dist and filter)

            П  П  П  П  П  П
 B|-----------------------------|
F#|-----------------------------|
 D|-----------------------------|
 A|-----------------------------|
 E|------------------------5-s4-|
 B|---------2--2--2--2--2--3-s2-|
            *  *  *  *  *    
|--------------------------------------------------------------------------------------------------------|
|                                          VERSE (00:15-00:35)                                           |
|--------------------------------------------------------------------------------------------------------|

Guitars 1 and 2 (w/ dist)

    П     П  П  П  П  П  П  П  П  П  П  П  П  П           П     П  П  П  П  П  П  П  П  П  П  П  П  П
 B|------------------------------------------------|    |------------------------------------------------|
F#|------------------------------------------------|    |------------------------------------------------|
 D|------------------------------------------------| x3 |------------------------------------------------|
 A|------------------------------------------------|    |------------------------------------------------|
 E|-2-h4--------4--------4-----4--------------5-s4-|    |-2-h4--------4--------4--------------------5-s4-|
 B|-0-h2--2--2--2--2--2--2--2--2--2--2--2--2--3-s2-|    |-0-h2--2--2--2--2--2--2--2--2--2--2--2--2--3-s2-|
          *  *     *  *     *     *  *  *  *                    *  *     *  *     *  *  *  *  *  *

    П     П  П  П  П  П  П  П  П  П  П  П  П  П           П     П  П  П  П  П  П  П  П  П  П  П  П  П
 B|------------------------------------------------|    |------------------------------------------------|
F#|------------------------------------------------|    |------------------------------------------------|
 D|------------------------------------------------| x3 |------------------------------------------------|
 A|------------------------------------------------|    |------------------------------------------------|
 E|-2-h4--------4--------4-----4--------------5-s4-|    |-2-h4--------4--------4--------------------5-s4-|
 B|-0-h2--2--2--2--2--2--2--2--2--2--2--2--2--3-s2-|    |-0-h2--2--2--2--2--2--2--2--2--2--2--2--2--3-s2-|
          *  *     *  *     *     *  *  *  *                    *  *     *  *     *  *  *  *  *  *

|--------------------------------------------------------------------------------------------------------|
|                                        PRE-CHORUS (00:35-00:40)                                        |
|--------------------------------------------------------------------------------------------------------|

Guitars 1 and 2 (w/ dist)

    П       П  П  П   П  П   П    П   П      П
 B|------------------------|---------------------|
F#|------------------------|---------------------|
 D|------------------------|---------------------|
 A|-5-------------5--------|-4----2---5----------|
 E|-3-------3--3--3---2--2-|-2----0---2----------|
 B|------------------------|----------------10s\-|
            *  *      *  *        *

|--------------------------------------------------------------------------------------------------------|
|                                          CHORUS (00:40-01:10)                                          |
|--------------------------------------------------------------------------------------------------------|

I. Guitars 1 and 2 (w/ dist) - may not be 100% correct, but it's close

    П   П   П   П   П   П   П  V  П  V   П   П   П   П   П   П   П  V  П  V
 B|------------------------------------|------------------------------------|
F#|------------------------------------|------------------------------------|
 D|------------------------------------|------------------------------------|
 A|------------------------------------|-2---4------------------------------|
 E|-2---2---2---2---3---3---2--2--2--2-|-0---2---2---2---3---3---2--2--2--2-|
 B|-0---0---0---0---0---0---0--0--0--0-|---------0---0---0---0---0--0--0--0-|
            *   *           *  *  *  *           *   *           *  *  *  *
 
    П   П   П   П   П   П   П  V  П  V   П   П   П   П   П  П V П V П V П  V  П  V 
 B|------------------------------------|-------------------------------------------|
F#|------------------------------------|-------------------------------------------|
 D|------------------------------------|-------------------------------------------|
 A|-5---5---5---5---5---5---5--5--5--5-|-2---2---2---2-----------------------------|
 E|-3---3---3---3---3---3---3--3--3--3-|-0---0---0---0---0--5-5-3-3-2-2------------|
 B|------------------------------------|--------------------------------5--3--0--2-|
            *   *           *  *  *  *           *   *   *  * * * * * * *  *  *  * 

    П   П   П   П   П   П   П  V  П  V   П   П   П   П   П   П   П  V  П  V
 B|------------------------------------|------------------------------------|
F#|------------------------------------|------------------------------------|
 D|------------------------------------|------------------------------------|
 A|------------------------------------|-2---4------------------------------|
 E|-2---2---2---2---3---3---2--2--2--2-|-0---2---2---2---3---3---2--2--2--2-|
 B|-0---0---0---0---0---0---0--0--0--0-|---------0---0---0---0---0--0--0--0-|
            *   *           *  *  *  *           *   *           *  *  *  * 
 
    П   П   П   П   П   П   П  V  П           П
 B|-----------------------------------|-----------|
F#|-----------------------------------|-----------|
 D|-----------------------------------|-----------|
 A|-5---5---5---5---5---5---------2---|-----------|
 E|-3---3---3---3---3---3---3--3--0---|-----------|
 B|-----------------------------------|------10s\-|
            *   *           *  *

II. Guitars 1 and 2 (w/ dist)

    П     П  П  П  П  П  П  П  П  П  П  П  П  П   
 B|------------------------------------------------| 
F#|------------------------------------------------|
 D|------------------------------------------------| x3 
 A|------------------------------------------------|
 E|-2-h4--------4--------4-----4--------------5-s4-|
 B|-0-h2--2--2--2--2--2--2--2--2--2--2--2--2--3-s2-| 
          *  *     *  *     *     *  *  *  *    

    П     П  П  П  П  П  П  П  П  П  П  П V П  П  П     
 B|-------------------------------------------------|
F#|-------------------------------------------------|
 D|-------------------------------------------------|
 A|-------------------------------------------------|
 E|-2-h4--------4--------4--------------------------|
 B|-0-h2--2--2--2--2--2--2--2--2--2--2--2-3-2--0--2-|
          *  *     *  *     *  *  *  *  * * *  *  *

   Guitar 3 (w/ dist and delay)

    П   V   П    V  П   V   П
 B|-----9-------10------9--------|
F#|-7-------7-------7-------7~~~~|
 D|------------------------------| x4
 A|------------------------------|
 E|------------------------------|
 B|------------------------------|

|--------------------------------------------------------------------------------------------------------|
|                                         VERSE 2 (01:10-01:30)                                          |
|--------------------------------------------------------------------------------------------------------|
                                              same as VERSE
|--------------------------------------------------------------------------------------------------------|
|                                       PRE-CHORUS 2 (01:30-01:35)                                       |
|--------------------------------------------------------------------------------------------------------|
                                            same as PRE-CHORUS
|--------------------------------------------------------------------------------------------------------|
|                                         CHORUS 2 (01:35-01:55)                                         |
|--------------------------------------------------------------------------------------------------------|

Guitars 1 and 2 (w/ dist)

    П   П   П   П   П   П   П  V  П  V   П   П   П   П   П   П   П  V  П  V
 B|------------------------------------|------------------------------------|
F#|------------------------------------|------------------------------------|
 D|------------------------------------|------------------------------------|
 A|------------------------------------|-2---4------------------------------|
 E|-2---2---2---2---3---3---2--2--2--2-|-0---2---2---2---3---3---2--2--2--2-|
 B|-0---0---0---0---0---0---0--0--0--0-|---------0---0---0---0---0--0--0--0-|
            *   *           *  *  *  *           *   *           *  *  *  *
 
    П   П   П   П   П   П   П  V  П  V   П   П   П   П   П  П V П V П V П  V  П  V 
 B|------------------------------------|-------------------------------------------|
F#|------------------------------------|-------------------------------------------|
 D|------------------------------------|-------------------------------------------|
 A|-5---5---5---5---5---5---5--5--5--5-|-2---2---2---2-----------------------------|
 E|-3---3---3---3---3---3---3--3--3--3-|-0---0---0---0---0--5-5-3-3-2-2------------|
 B|------------------------------------|--------------------------------5--3--0--2-|
            *   *           *  *  *  *           *   *   *  * * * * * * *  *  *  * 

    П   П   П   П   П   П   П  V  П  V   П   П   П   П   П   П   П  V  П  V
 B|------------------------------------|------------------------------------|
F#|------------------------------------|------------------------------------|
 D|------------------------------------|------------------------------------|
 A|------------------------------------|-2---4------------------------------|
 E|-2---2---2---2---3---3---2--2--2--2-|-0---2---2---2---3---3---2--2--2--2-|
 B|-0---0---0---0---0---0---0--0--0--0-|---------0---0---0---0---0--0--0--0-|
            *   *           *  *  *  *           *   *           *  *  *  * 
 
    П   П   П   П   П   П   П  V  П           П
 B|-----------------------------------|-----------|
F#|-----------------------------------|-----------|
 D|-----------------------------------|-----------|
 A|-5---5---5---5---5---5---------2---|-----------|
 E|-3---3---3---3---3---3---3--3--0---|-----------|
 B|-----------------------------------|------10s\-|
            *   *           *  *

|--------------------------------------------------------------------------------------------------------|
|                                          BRIDGE (01:55-02:35)                                          |
|--------------------------------------------------------------------------------------------------------|

Guitars 1 and 2 (w/ dist) - Rhythm for Solo

    П..............
 B|----------------|
F#|----------------|
 D|----------------|
 A|-2--------------|
 E|-2--------------|
 B|-0--------------|

    П  П  П  П  П  П  П  П  П  П  П  П  П  П  П  П   П  П  П  П  П  П  П  П  П  П  П  П  П  П  П  П  
 B|------------------------------------------------|------------------------------------------------|
F#|------------------------------------------------|------------------------------------------------|
 D|------------------------------------------------|------------------------------------------------|
 A|------------------------------------------------|------------------------------------------------|
 E|-2----------------------------------------------|------------------------------------------------|
 B|-0--0--0--0--0--0--0--0--0--0--0--0--0--0--0--0-|-0--0--0--0--0--0--0--0--0--0--0--0--0--0--0--0-|
       *  *  *  *  *  *  *  *  *  *  *  *  *  *  *   *  *  *  *  *  *  *  *  *  *  *  *  *  *  *  *

    П  П  П     П   П  П  П  П  П     П   П  П   П  П  П     П   П  П  П  П  П  П  П  П  П  
 B|--------------------------------------------|-----------------------------------------------|
F#|--------------------------------------------|-----------------------------------------------|
 D|--------------------------------------------|-----------------------------------------------| x4
 A|--------------------------------------------|-----------------------4--------2--------------|
 E|-4--4--5-s4--4---2--4--5--4--5-s4--4---2--4-|-5--4--5-s4--4---------------------------5-p4--|
 B|-2--2--3-s2--2---0--2--3--2--3-s2--2---0--2-|-3--2--3-s2--2---2--2-----2--2-----2--2--------|
    *  *            *  *  *  *            *  *   *  *            *  *     *  *     *  *

    П     П  П  П  П  П  П  П  П  П  П  П  П  П   
 B|------------------------------------------------|
F#|------------------------------------------------|
 D|------------------------------------------------| x2
 A|------------------------------------------------|
 E|-2-h4--------4--------4-----4--------------5-s4-|
 B|-0-h2--2--2--2--2--2--2--2--2--2--2--2--2--3-s2-|
          *  *     *  *     *     *  *  *  * 
      
    П  П     П  П     П  П     П  П     П     П  П   П  П     П  П     П  П     П  П      П  
 B|------------------------------------------------|------------------------------------------|
F#|------------------------------------------------|------------------------------------------|
 D|------------------------------------------------|------------------------------------------|
 A|------------------------------------------------|------------------------------------------|
 E|-2--2-----2--2-----2--2-----2--2-----5-s4--2--2-|-2--2-----2--2-----2--2-----2--2----------|
 B|-0--0-----0--0-----0--0-----0--0-----3-s2--0--0-|-0--0-----0--0-----0--0-----0--0-----10s\-|
    *  *     *  *     *  *     *  *           *  *   *  *     *  *     *  *     *  *

|--------------------------------------------------------------------------------------------------------|
|                                         CHORUS 3 (02:35-02:55)                                         |
|--------------------------------------------------------------------------------------------------------|
                                            same as CHORUS 2
|--------------------------------------------------------------------------------------------------------|
|                                          OUTRO (02:55-03:07)                                           |
|--------------------------------------------------------------------------------------------------------|

Guitars 1 and 2 (w/ dist)

    П  П  П     П   П  П  П  П  П     П   П  П   П  П  П     П   П  П  П  П  П  П  П  П  П  
 B|--------------------------------------------|----------------------------------------------|
F#|--------------------------------------------|----------------------------------------------|
 D|--------------------------------------------|-----------------------2----------------------| x2
 A|--------------------------------------------|--------------------------------5--------3-p2-|
 E|-------3-p2--2---------------3-p2--2--------|-------3-p2--2--------------------------------|
 B|-0--0--1-p0--0---0--0--0--0--1-p0--0---0--0-|-0--0--1-p0--0---0--0-----0--0-----0--0-------|
    *  *            *  *  *  *            *  *   *  *            *  *     *  *     *  * 

    П  П  П  П  П  П  П     П   П
 B|-------------------------------------|
F#|-------------------------------------|
 D|-2-----------------------------------|
 A|----------5--------3-p2--------------|
 E|-------------------------------------|
 B|----0--0-----0--0--------0---0-------|
       *  *     *  *  
            
Submit corrections


        Hell To Pay  lessons Hard to play? Try these video lessons and learn fast Hell To Pay  lessons
        
↑ Back to top | Tablatures and chords for acoustic guitar and electric guitar, ukulele, drums are parodies/interpretations of the original songs. You may use it for private study, scholarship, research or language learning purposes only