» » »

Five Finger Death Punch - Got Your Six Tabs

Artists:  A B C D E F G H I J K L M N O P Q R S T U V W X Y Z # 

Got Your Six Tabs

(ver. 1) Click to play this song!
Five Finger Death Punch
 Rating:
4.3/5 (16 votes)

 Got Your Six  lessons Tabs too difficult? Try these video lessons and learn fast
 
                B standard tuning (B E A D F# B) 

[Intro]
  This is the opening riff played on clean.
G|-----------7-----------|-----------3--3-----|-----------3-----------|-----------5-----------|
F|--------------8-----8--|-----------------0--|--------------0-----0--|--------------0-----0--|
D|--------9--------9-----|--------0-----------|--------0--------0-----|--------0--------0-----|
A|-----9-----------------|-----2--------------|-----2-----------------|-----4-----------------| x2
E|--7--------------------|--0-----------------|--3--------------------|--5--------------------|
B|-----------------------|--------------------|-----------------------|-----------------------|
  This next part is played with distortion.(kicks in when the clean open repeats)
G|------------------------|--------------------------------------------|----------------------|
F|------------------------|--------------------------------------------|----------------------|
D|--9-9----2-2----5-5----7|--------------------------------------------|----------------------|
A|--9-9----2-2----5-5----7|--9-------9-------9-----9--------9-----9/10-|---9----9---9/8-------|
E|--7-7----0-0----3-3----5|--7-------7-------7-----7--------7-----7/8--|---7----7---7/6-------|
B|------------------------|-----0--0---0--0-----0-----0--0-----0-------|-0---0-0--0-----------|
                                                                                                 
G|---------------------|-----------------|                                                          x2
F|---------------------|-----------------|
D|---------------------|-----------------|                                                          
A|----9-----9---9/-10--|---6-------------|
E|----7-----7---7/-8---|-----7---6---6---|
B|--0---0-0---0--------|-0-----0---0---7-|

G|-----------------|----------------------|
F|-----------------|----------------------|
D|-----------------|----------------------| x2
A|-----------------|----------------------|
E|-2--------2--3/5-|----2--3-----5--4--3--|
B|-0--0--0--0--1/3-|-0--0--1--0--3--2--1--|


[Verse]

G|------------------|----------------|------------------|------------------------|
F|------------------|----------------|------------------|------------------------|
D|------------------|----------------|------------------|------------------------|
A|---9-----9---9/10-|---9----9---9/8-|---9-----9---9/10-|---6--------------------| x2
E|---7-----7---7/8--|---7----7---7/6-|---7-----7---7/8--|-----7---6---6----------|
B|-0---0-0---0------|-0---0-0--0-----|-0---0-0---0------|-0-----0---0---7--------|


[Chorus]

G|----------------------|-----------------|----------------|----------------|-------------------|
F|----------------------|-----------------|----------------|----------------|-------------------|
D|----------------------|-----------------|----------------|----------------|-------------------|
A|----------------------|-----------------|----------------|----------------|-------------------| x2
E|--7-----6-----5-----4-|------------3--2-|-----------3--2-|-----------3-2--|----------------3--|
B|--5--0--4--0--3--0--2-|--0000-0000-1--0-|-0000-0000-1--0-|-0000-0000-1-0--|-0-0-0-0--4--0--1--|


[Verse]

G|------------------|----------------|------------------|------------------------|
F|------------------|----------------|------------------|------------------------|
D|------------------|----------------|------------------|------------------------|
A|---9-----9---9/10-|---9----9---9/8-|---9-----9---9/10-|---6--------------------| x2
E|---7-----7---7/8--|---7----7---7/6-|---7-----7---7/8--|-----7---6---6----------|
B|-0---0-0---0------|-0---0-0--0-----|-0---0-0---0------|-0-----0---0---7--------|

[Chorus]

G|----------------------|-----------------|----------------|----------------|-------------------|
F|----------------------|-----------------|----------------|----------------|-------------------|
D|----------------------|-----------------|----------------|----------------|-------------------|
A|----------------------|-----------------|----------------|----------------|-------------------| x2
E|--7-----6-----5-----4-|------------3--2-|-----------3--2-|-----------3-2--|----------------3--|
B|--5--0--4--0--3--0--2-|--0000-0000-1--0-|-0000-0000-1--0-|-0000-0000-1-0--|-0-0-0-0--4--0--1--|

[Bridge]

G|------------------------------|
F|------------------------------|
D|--7---------------------------| x3
A|--7---------------------------|
E|--5---2---------2--3-----3/5--|
B|------0---0--0--0--1--0--1/3--|

[Chorus]

G|-----------------|--------------------------------|-------------------|
F|-----------------|--------------------------------|-------------------|
D|-----------------|--------------------------------|-------------------|
A|-----------------|--------------------------------|-------------------| x2
E|------------3--2-|-----------3--2------------3-2--|----------------3--|
B|--0000-0000-1--0-|-0000-0000-1--0--0000-0000-1-0--|-0-0-0-0--4--0--1--|

G|-------------------|-------------------|-------------|
F|-------------------|-------------------|-------------|
D|-------------------|-------------------|-------------|
A|-------------------|-------------------|-------------|
E|----------------3--|----------------3--|-------------|
B|-0-0-0-0--4--0--1--|-0-0-0-0--4--0--1--|-0--0--0--0--|


I haven't quite figured out the solo yet, but it will be added in the near future.

[Outro]

G|-------------------------------------|
F|-------------------------------------|
D|-------------------------------------|
A|-------------------------------------|
E|--2-----2--3/5-----2--3-----5--4--3--|
B|--0--0--0--1/3--0--0--1--0--3--2--1--|

G|-------------------------------------|
F|-------------------------------------|
D|-------------------------------------|
A|-------------------------------------|
E|--2-----2--3/5-----2--3-----5--4--3--|
B|--0--0--0--1/3--0--0--1--0--3--2--1--|            
Submit corrections


        Got Your Six  lessons Hard to play? Try these video lessons and learn fast Got Your Six  lessons
        
↑ Back to top | Tablatures and chords for acoustic guitar and electric guitar, ukulele, drums are parodies/interpretations of the original songs. You may use it for private study, scholarship, research or language learning purposes only