» » »

Five Finger Death Punch - Gone Away Tabs

Artists:  A B C D E F G H I J K L M N O P Q R S T U V W X Y Z # 

Gone Away Tabs

(ver. 1) Click to play this song!
Five Finger Death Punch
 Rating:
4.3/5 (27 votes)

 Gone Away lessons Tabs too difficult? Try these video lessons and learn fast
 
                        (Intro)                        (Verse 1)                                         (Chorus)
D|---------------------------|--------------------------|--------------------------|-------------------------|
A|----1------3-----3-----3---|---1------3-----3-----3---|---1------3-----3-----3---|---1------3-----3-----3--|
F|----2------2-----0-----4---|---2------2-----0-----4---|---2------2-----0-----4---|---2------2-----0-----4--|
C|----0------3-----2-----5---|---0------3-----2-----5---|---0------3-----2-----5---|---0------3-----2-----5--|
G|-----------------3---------|----------------3---------|----------------3---------|----------------3--------|
C|----0------3-----------5---|---0------3-----------5---|---0------3-----------5---|---0------3-----------5--|
                                  Maybe in another....                                And it feels....

D|---------------------------|-------------------------------------------------------------------------------|
A|----1------3-----3-----3---|-------------------------------------------------------------------------------|
F|----2------2-----0-----4---|-------------------------------------------------------------------------------|
C|----0------3-----2-----5---|-------------------------------------------------------------------------------|
G|-----------------3---------|-------------------------------------------------------------------------------|
C|----0------3-----------5---|-------------------------------------------------------------------------------|

D|------------------8------------8---------------8---------------8-------------------------------------------|
A|--------------6-------------6--------------6---------------6------------------------8-----------------8----|
F|----------7--------------7-------------7---------------7------------------------9-----------------9--------|
C|------0--------------0-----------------------------------------------------10----------------10------------|
G|-----------------------------------8---------------8-------------------------------------------------------|
C|----------------------------------------------------------------------10----------------10-----------------|

D|------------------8----------------8----------------8--------------8---------------8----------------8------|
A|--------------6----------------6----------------6--------------6---------------6----------------6----------|
F|----------7----------------7----------------7--------------7---------------7----------------7--------------|
C|------5----------------5----------------0--------------0---------------------------------------------------|
G|-----------------------------------------------------------------------8----------------8------------------|
C|-----------------------------------------------------------------------------------------------------------|

D|--------------------------------------------------------8----------------8---------------------------------|
A|--------------------8-----------------8-------------6----------------6-------------------------------------|
F|----------------9-----------------9-------------7----------------7-----------------------------------------|
C|-----------10----------------10-------------5----------------5---------------------------------------------|
G|-----------------------------------------------------------------------------------------------------------|
C|------10----------------10---------------------------------------------------------------------------------|

[Verse 2]
D|-----------------------------------------------------------------------------------------------------------|
A|-----------------------------------------------------------------------------------------------------------|
F|-----------------------------------------------------------------------------------------------------------|
C|------0--------3---------------5--------5----------------0--------3------------------5--------5------------|
G|------0--------3------3---3----3--------5-----3---2------0--------3-------3---3------3--------5------3---2-|
C|------0--------3------3---3-------------5-----3---2------0--------3-------3---3---------------5------3---2-|
        Leaving flowers on your grave....

[Pre-Chorus]
D|-----------------------------------------------------------------------------------------------------------|
A|-----------------------------------------------------------------------------------------------------------|
F|-----------------------------0----------0------------------------------------------------------------------|
C|------3-----2---3--2------------------------------------3-----2---3--2-----------3---------3---------------|
G|---------5------------3---3-----3---3------3---------------3--------------5---5-----5---5-----5------------|
C|---0-------------------------------------------------------------------------------------------------------|
                 I reach to the sky....

D|-----------------------------------------------------------------------------------------------------------|
A|-----------------------------------------------------------------------------------------------------------|
F|-----------------------------0----------0-------0----------------------------------------------------------|
C|------3-----2---3--2---------------------------------------------5---5------------5---5--------------------|
G|---------5------------3---3-----3---3------3----3----------------5---5------------5---5----3---2-----------|
D|----------------------------------------------------------0--0---5---5----0--0----5---5----3---2-----------|
                                                                                       And it
[Chorus]
D|-----------------------------------------------------------------------------------------------------------|
A|-----------------------------------------------------------------------------------------------------------|
F|-----------------------------------------------------------------------------------------------------------|
C|----0-----------0-----------3------------3-------5--5--------5----------5-------5------------5-------------|
G|----0-----------0-----------3------------3-------3--3---3-3--3-----3-3--3-------5------------5-----3----2--|
C|----0-----0--0--0-----------3------3--3--3--------------------------------------5-----5--5---5-----3----2--|
      feels....

D|-----------------------------------------------------------------------------------------------------------|
A|-----------------------------------------------------------------------------------------------------------|
F|-----------------------------------------------------------------------------------------------------------|
C|----0-----------0-----------3------------3-------5--5--------5----------5-------5------------5-------------|
G|----0-----------0-----------3------------3-------3--3---3-3--3-----3-3--3-------5------------5-----3----2--|
C|----0-----0--0--0-----------3------3--3--3--------------------------------------5-----5--5---5-----3----2--|

D|-----------------------------------------------------------------------------------------------------------|
A|-----------------------------------------------------------------------------------------------------------|
F|-----------------------------0----------0------------------------------------------------------------------|
C|------3-----2---3--2------------------------------------3----2---3--2-----------3---------3----------------|
G|---------5------------3---3-----3---3------3--------------3--------------5---5-----5---5-----5-------------|
C|---0-------------------------------------------------------------------------------------------------------|

D|-----------------------------------------------------------------------------------------------------------|
A|-----------------------------------------------------------------------------------------------------------|
F|-----------------------------------------------------------------------------------------------------------|
C|----0-----------0-----------3------------3-------5--5--------5----------5-------5------------5-------------|
G|----0-----------0-----------3------------3-------3--3---3-3--3-----3-3--3-------5------------5-----3----2--|
C|----0-----0--0--0-----------3------3--3--3--------------------------------------5-----5--5---5-----3----2--|

D|-----------------------------------------------------------------------------------------------------------|
A|-----------------------------------------------------------------------------------------------------------|
F|-----------------------------------------------------------------------------------------------------------|
C|----------------5---5------------5---5---------------------------------------------------------------------|
G|----------------5---5------------5---5----3---2------------------------------------------------------------|
D|---------0--0---5---5----0--0----5---5----3---2------------------------------------------------------------|

[Solo]
D|-----------------------------------------------------------------------------------------------------------|
A|-----------------------------------------------------------------------------------------------------------|
F|------/7~------10br-b~-------5h7------------------------5h7p5/7~-------------------------------------------|
C|---------------------------------5----3-------3h5~---------------------------------------------------------|
G|-----------------------------------------5--3--------------------------------------------------------------|
D|-----------------------------------------------------------------------------------------------------------|

D|-----------------------------------------------------------------------------------------------------------|
A|------8p6-------8---/8~-------17b(18)-17b---15~------------------------------------------------------------|
F|------------7----------------------------------------------------------------------------------------------|
C|-----------------------------------------------------------------------------------------------------------|
G|-----------------------------------------------------------------------------------------------------------|
D|-----------------------------------------------------------------------------------------------------------|

D|-------------------------------------------------------------13--------12---------15--------17------20--22-|
A|---------------------------------------------------15---13/15-----15\13-----15-13------13/15---15/18-------|
F|------------------9--10------12------10---12/14-14---------------------------------------------------------|
C|-----------10h12---------12------12------------------------------------------------------------------------|
G|---12--12--------------------------------------------------------------------------------------------------|
D|-----12----------------------------------------------------------------------------------------------------|

D|-------------------19h20p19p17------17--19--20---20b~----22---22--22-22-22b~(22b25)------------------------|
A|------------------------------------------------------------------------------------------17*--------------|
F|-----------------------------------------------------------------------------------------------------------|
C|-----------------------------------------------------------------------------------------------------------|
G|-----------------------------------------------------------------------------------------------------------|
D|-----------------------------------------------------------------------------------------------------------|

D|-----------------------------------------------------------------------------10----13--/20-20-20-20-20~~---|
A|-13--13-----------------13--13--------------------------------------------10---10--------------------------|
F|--------14\12--10---------------14\12--10-------12br--10------------10-12----------------------------------|
C|------------------12-10------------------12-10-----------12------12----------------------------------------|
G|-----------------------------------------------------------12-10-------------------------------------------|
D|-----------------------------------------------------------------------------------------------------------|

D|---17-18-20-17--18b------22\20-20-20\18-18-18\17-17-17\15-15-15\13-13-13\12-12-12\10-10-10\8---8-----------|
A|-----------------------------------------------------------------------------------------------------------|
F|-----------------------------------------------------------------------------------------------------------|
C|-----------------------------------------------------------------------------------------------------------|
G|-----------------------------------------------------------------------------------------------------------|
D|-----------------------------------------------------------------------------------------------------------|

D|---------------------------------17-17-18-18-20-20-22-22--24b(27)~---24b(27)r~-----------------------------|
A|-----15-15--17-17--18-18--20-20----------------------------------------------------17~~--------------------|
F|-----------------------------------------------------------------------------------------------------------|
C|-----------------------------------------------------------------------------------------------------------|
G|-----------------------------------------------------------------------------------------------------------|
D|-----------------------------------------------------------------------------------------------------------|
                                                                                          I....
[Pre-Chorus]
D|-----------------------------------------------------------------------------------------------------------|
A|-----------------------------------------------------------------------------------------------------------|
F|-----------------------------------------------------------------------------------------------------------|
C|----0-----------0-----------3------------3-------5--5--------5----------5---------5--5---------5--5--------|
G|----0-----------0-----------3------------3-------3--3---3-3--3-----3-3--3---------5--5---------5--5---3--2-|
C|----0-----0--0--0-----------3------3--3--3-----------------------------------5-5--5--5---5--5--5--5---3--2-|
                              Reach to the sky...

D|-----------------------------------------------------------------------------------------------------------|
A|-----------------------------------------------------------------------------------------------------------|
F|-----------------------------------------------------------------------------------------------------------|
C|----0-----------0-----------3------------3-------5--5--------5----------5---------5--5---------5--5--------|
G|----0-----------0-----------3------------3-------3--3---3-3--3-----3-3--3---------5--5---------5--5---3--2-|
C|----0-----0--0--0-----------3------3--3--3-----------------------------------5-5--5--5---5--5--5--5---3--2-|
                                                                                                 And it...
[Chorus]
D|-----------------------------------------------------------------------------------------------------------|
A|-----------------------------------------------------------------------------------------------------------|
F|-----------------------------------------------------------------------------------------------------------|
C|----0------------------------------------------------------------------------------------------------------|
G|----0------------------------------------------------------------------------------------------------------|
C|----0------------------------------------------------------------------------------------------------------|
     Feels....

D|-----------------------------------------------------------------------------------------------------------|
A|-----------------------------------------------------------------------------------------------------------|
F|-----------------------------------------------------------------------------------------------------------|
C|----0-----------0-----------3------------3-------5--5--------5----------5---------5--5---------5--5--------|
G|----0-----------0-----------3------------3-------3--3---3-3--3-----3-3--3---------5--5---------5--5---3--2-|
C|----0-----0--0--0-----------3------3--3--3-----------------------------------5-5--5--5---5--5--5--5---3--2-|


D|-----------------------------------------------------------------------------------------------------------|
A|-----------------------------------------------------------------------------------------------------------|
F|-----------------------------------------------------------------------------------------------------------|
C|----0-----------0-----------3------------3-------5--5--------5----------5---------5--5---------5--5--------|
G|----0-----------0-----------3------------3-------3--3---3-3--3-----3-3--3---------5--5---------5--5---3--2-|
C|----0-----0--0--0-----------3------3--3--3-----------------------------------5-5--5--5---5--5--5--5---3--2-|

[Post-Chorus]
D|----------------------------------------------------------------13p12--------------------------------------|
A|----------------------------------------------------------------------13-----------------------------------|
F|--------------------------------12/14------12p10------12b--12-------------12-------------------------------|
C|--10h12-10h12-10h12------10h12--------------------12--------------------------15\14---12\------------------|
G|-----------------------------------------------------------------------------------------------------------|
C|-----------------------------------------------------------------------------------------------------------|
        Gone away...

D|-----------------------------------------------------------------------------------------------------------|
A|-----------------------------------------------------------------------------------------------------------|
F|------12b-12b--------------------12b--12b------------12-\10p9--9h10p7--------------------------------------|
C|-----------------------------------------------------------------------------------------------------------|
G|-----------------------------------------------------------------------------------------------------------|
C|-----------------------------------------------------------------------------------------------------------|

[Outro]
D|--------------------20b---22b-22b(25)--22b~----------------------------------------------------------------|
A|---20br-20b~-------------------------------------------------------x--x--x--x--x--x--x--x------------------|
F|---------------------------------------------------17b---17--14----x--x--x--x--x--x--x--x-----------12b~---|
C|---------------------------------------------------------------------------------------------12--12--------|
G|-----------------------------------------------------------------------------------------------------------|
C|-----------------------------------------------------------------------------------------------------------|
                                                                                               And it feels...

            
Submit corrections


        Gone Away lessons Hard to play? Try these video lessons and learn fast Gone Away lessons
        
↑ Back to top | Tablatures and chords for acoustic guitar and electric guitar, ukulele, drums are parodies/interpretations of the original songs. You may use it for private study, scholarship, research or language learning purposes only