» » »

Five Finger Death Punch - Generation Dead Tabs

Artists:  A B C D E F G H I J K L M N O P Q R S T U V W X Y Z # 

Generation Dead Tabs

(ver. 1) Click to play this song!
Five Finger Death Punch
 Rating:
4/5 (4 votes)

 Generation Dead  lessons Tabs too difficult? Try these video lessons and learn fast
 
                                                  Tuning: 6 string BEADF#B

-----------------------------------------------------------------------------------------
|                                    INTRO (00:00-00:32)                                |
-----------------------------------------------------------------------------------------

Guitars 1 and 2 (w/ dist) ( "." - let ring )
                                           ................
 B|----------------------------|---------------------------|
F#|----------------------------|-----------------------0---|
 D|----------------------------|--------------------0------|
 A|----------------------------|-----------------3---------|
 E|-2--2-2-2--2--2-2-2--2--2-2-|-2--2-2-2--2--1------------|\
 B|-0--0-0-0--0--0-0-0--0--0-0-|-0--0-0-0--0---------------| \
       * *       * *       * *      * *                       \
                                               .........      x2
 B|----------------------------|------------------------|    /
F#|----------------------------|------------------------|   /
 D|----------------------------|------------------------|  /
 A|----------------------------|--------------------0---| /
 E|-2--2-2-2--2--2-2-2--2--2-2-|-2--2-2-2--2--3--3------|/
 B|-0--0-0-0--0--0-0-0--0--0-0-|-0--0-0-0--0--1---------|
       * *       * *       * *      * *

-----------------------------------------------------------------------------------------
|                                   VERSE (00:32-00:53)                                 |
-----------------------------------------------------------------------------------------
                                      same as INTRO
-----------------------------------------------------------------------------------------
|                                 PRE-CHORUS (00:53-01:00)                              |
-----------------------------------------------------------------------------------------

Guitars 1 and 2 (w/ dist)

 B|-------------------------|------------------------|------------|
F#|-------------------------|------------------------|------------|
 D|-------------------------|------------------------|------------|
 A|-2---2-------4---4-------|-5---5-------7---9---10-|-7---9---10-|
 E|-0---0---0-0-2---2---0-0-|-3---3---0-0-5---7---8--|-5---7---8--|
 B|-------------------------|------------------------|------------|
            * *         * *           * *                     

-----------------------------------------------------------------------------------------
|                                   CHORUS (01:00-01:21)                                |
-----------------------------------------------------------------------------------------

Guitars 1 and 2 (w/ dist)
                                                                   ---------|
 B|---------------------------------|---------------------------------|     |
F#|---------------------------------|---------------------------------|     |
 D|-------2-2-2-------4-4-4---------|---------------------------------|     |
 A|---------------------------------|-------3-3-3-------3-3-3---------|     |
 E|-0-0-0-------0-0-0-------2-3-2-0-|-------------------------0-0-0-0-|     |
 B|---------------------------------|-1-1-1-------3-3-3---------------|     | 
    * * * * * * * * * * * * * * * *   * * * * * * * * * * * * * * * *       | x2
 B|-------------------------------|-----------------------------|           |
F#|-------------------------------|-----------------------------|           |
 D|-------5-5-5-------------5-5---|-------4-4-4-----------------|           |
 A|-------------------------2-3---|-----------------------------|           |
 E|-3-3-3-------3-3-3-5-5---------|-----------------------------|           | 
 B|-----------------------3-------|-3-3-3-------4-4-4-4--5--7---|           |
    * * * * * * * * * * * *         * * * * * * * * *         --------------|

Guitar 3 (w/ dist)

 B|----------------------------------|------------------------------------------|
F#|----------------------------------|------------------------------------------|
 D|----------------------------------|-------10-10-10----------10-10-10---------|
 A|-7-7-7-7-7-7-7-7-7-9-9-9-9-10-9-7-|----------------------------------7-7-7-7-|
 E|----------------------------------|-8-8-8----------10-10-10------------------|\
 B|----------------------------------|------------------------------------------| \
                                                                                   x2
 B|------------------------------------------|----------------------------------| /
F#|------------------------------------------|----------------------------------|/
 D|----------------------------7-7-----------|----------------------------------|
 A|-10-10-10-10-10-10-10-10-10--------10-10--|----------9-9-9-------------------|
 E|--------------------------------10-7--8---|-10-10-10-------11-11-11----------|
 B|------------------------------------------|----------------------------------|

-----------------------------------------------------------------------------------------
|                                   VERSE 2 (01:21-01:53)                               |
-----------------------------------------------------------------------------------------

Guitars 1 and 2 (w/ dist)
                                             ..............
 B|---------------------------|----------------------------|
F#|---------------------------|----------------------------|
 D|---------------------------|-----------------------0----| x2
 A|---------------------------|--------------------3-------|
 E|-3--2--------3--2----------|-3--2---------1-------------|
 B|-1--0--0-0-0-1--0--0-0-0-0-|-1--0--0-0-0----------------|
          * * *       * * * *         * * *
                                           ................
 B|----------------------------|---------------------------|
F#|----------------------------|-----------------------0---|
 D|----------------------------|--------------------0------|
 A|----------------------------|-----------------3---------|
 E|-2--2-2-2--2--2-2-2--2--2-2-|-2--2-2-2--2--1------------|\
 B|-0--0-0-0--0--0-0-0--0--0-0-|-0--0-0-0--0---------------| \
       * *       * *       * *      * *                       \
                                               .........      x2
 B|----------------------------|------------------------|    /
F#|----------------------------|------------------------|   /
 D|----------------------------|------------------------|  /
 A|----------------------------|--------------------0---| /
 E|-2--2-2-2--2--2-2-2--2--2-2-|-2--2-2-2--2--3--3------|/
 B|-0--0-0-0--0--0-0-0--0--0-0-|-0--0-0-0--0--1---------|
       * *       * *       * *      * *

-----------------------------------------------------------------------------------------
|                                 PRE-CHORUS 2 (01:53-02:00)                            |
-----------------------------------------------------------------------------------------
                                     same as PRE-CHORUS
-----------------------------------------------------------------------------------------
|                                   CHORUS 2 (02:00-02:21)                              |
-----------------------------------------------------------------------------------------
                                       same as CHORUS
-----------------------------------------------------------------------------------------
|                                     SOLO (02:21-02:44)                                |
-----------------------------------------------------------------------------------------
Guitars 1 and 2 (w/ dist) - rhythm for solo

                                             ..............
 B|---------------------------|----------------------------|
F#|---------------------------|----------------------------|
 D|---------------------------|-----------------------0----|
 A|---------------------------|--------------------3-------|
 E|-3--2--------3--2----------|-3--2---------1-------------|
 B|-1--0--0-0-0-1--0--0-0-0-0-|-1--0--0-0-0----------------|
          * * *       * * * *         * * *

 B|-------------------------|------------------------|
F#|-------------------------|------------------------|
 D|-------------------------|------------------------|
 A|-2---2-------4---4-------|-5---5-------7---9---10-|
 E|-0---0---0-0-2---2---0-0-|-3---3---0-0-5---7---8--|
 B|-------------------------|------------------------|
            * *         * *           * * 
 B|------------|
F#|------------|
 D|------------|
 A|-7---9---10-|
 E|-5---7---8--|
 B|------------|

Guitar 3 (w/ dist) - SOLO

 B|--------------------------|-----------------------|
F#|--------15------------15--|-----------15----------|
 D|--------17b-----------17b-|-----------17b~~~~~~~~~|
 A|--------------------------|-----------------------|
 E|--------------------------|-----------------------|
 B|--------------------------|-----------------------|

    (16th notes here)
 B|----------------------------------------------|--------------------------------------|
F#|-13-10-12----10-------------------------------|--------------------------------------|
 D|----------12----10-12-9-10----9-------9h10----|-12----10-12s14-----s17----16~~~~~~~~~|
 A|---------------------------12---10-12------12-|----12----------12------14------------|
 E|----------------------------------------------|--------------------------------------|
 B|----------------------------------------------|--------------------------------------|
                         * *  *  * *  *       *       *
    (16th notes here)
 B|----------------------------------------------|-----------------------------------|
F#|-13-10-12----10-------------------------------|-------------------15b----r~~~~----|
 D|----------12----10-12-9-10----9-------9h10----|-12----10-12s14----------------17s-|
 A|---------------------------12---10-12------12-|----12----------12-----------------|
 E|----------------------------------------------|-----------------------------------|
 B|----------------------------------------------|-----------------------------------|
                         * *  *  * *  *       *       *     
    (32th notes here)
 B|-8-7-5-------8-7-5-------10-8-7--------12-10-8---------13-12-10----------15-13-|
F#|-------8-7-5-------8-7-5--------10-8-7---------12-10-8----------13-12-10-------|
 D|-------------------------------------------------------------------------------|
 A|-------------------------------------------------------------------------------|
 E|-------------------------------------------------------------------------------|
 B|-------------------------------------------------------------------------------|

    (32th notes here)
 B|-12----------17-15-13----------19-17-15----------20---19~~~~~17--|
F#|----15-13-12----------17-15-13----------19-17-15-----------------|
 D|-----------------------------------------------------------------|
 A|-----------------------------------------------------------------|
 E|-----------------------------------------------------------------|
 B|-----------------------------------------------------------------|

 B|-20b-------20----22b---------|
F#|-----------------------------|
 D|-----------------------------|
 A|-----------------------------|
 E|-----------------------------|
 B|-----------------------------|

Guitar 4 (w/ dist) - Harmony for SOLO, starts from 5th bar of Guitar 3 (Guitar in standard tuning)

E|-7-----------------------------------|----------------------------------|
B|---8-10-7-8---7----------------------|------------------13b----r~~~~----|
G|------------9---7-9----7------7-9----|-11----9-11-12--------------------|
D|--------------------10---9-10-----10-|----10---------10-----------------|
A|-------------------------------------|----------------------------------|
E|-------------------------------------|----------------------------------|

E|-------------|-------19---17~~~~~15--|-19b------19----20b----------|
B|-------------|-----------------------|-----------------------------|
G|-------------|-----------------------|-----------------------------|
D|-------------|-----------------------|-----------------------------|
A|-------------|-----------------------|-----------------------------|
E|-------------|-----------------------|-----------------------------|

-----------------------------------------------------------------------------------------
|                                   CHORUS 3 (02:44-03:28)                              |
-----------------------------------------------------------------------------------------

I. Guitar 1 (w/ clean and reverb)

    ....................................................................................
 B|-------8-------------8-----------------8---|-------8-------------8---------------8---|
F#|----5----------5----------5---------5------|----6-----6-------6---------------6------|
 D|-5--------5-------5----------5---5---------|---------------5-----------5---5---------|
 A|-------------------------------------------|-7---------------------------------------|
 E|-------------------------------------------|-----------------------------------------|
 B|-------------------------------------------|-----------------------------------------|
    ...........................................................
 B|-------8-----------8------------8---|-------7-----------7-----------|
F#|----5-----------5------------5------|----------------8--------------|
 D|-5-----------5------------5---------|----7--------7-----------------|
 A|------------------------------------|-9-----------------------------|
 E|------------------------------------|-------------------------------|
 B|------------------------------------|-------------------------------|

  Guitar 2 (w/ dist) - 3 bars empty, then:

 B|------------------------------|
F#|------------------------------|
 D|------------------------------|
 A|------xxxxxxxxx---------------|
 E|------------------------------|
 B|----------------4---5----7----|
       gtr.scratch

II. Guitars 1 and 2 (w/ dist)
                                                                   ---------|
 B|---------------------------------|---------------------------------|     |
F#|---------------------------------|---------------------------------|     |
 D|-------2-2-2-------4-4-4---------|---------------------------------|     |
 A|---------------------------------|-------3-3-3-------3-3-3---------|     |
 E|-0-0-0-------0-0-0-------2-3-2-0-|-------------------------0-0-0-0-|     |
 B|---------------------------------|-1-1-1-------3-3-3---------------|     | 
    * * * * * * * * * * * * * * * *   * * * * * * * * * * * * * * * *       | x2
 B|-------------------------------|-----------------------------|           |
F#|-------------------------------|-----------------------------|           |
 D|-------5-5-5-------------5-5---|-------4-4-4-----------------|           |
 A|-------------------------2-3---|-----------------------------|           |
 E|-3-3-3-------3-3-3-5-5---------|-----------------------------|           | 
 B|-----------------------3-------|-3-3-3-------4-4-4-4--5--7---|           |
    * * * * * * * * * * * *         * * * * * * * * *         --------------|

    Guitar 3 (w/ dist)

 B|----------------------------------|------------------------------------------|
F#|----------------------------------|------------------------------------------|
 D|----------------------------------|-------10-10-10----------10-10-10---------|
 A|-7-7-7-7-7-7-7-7-7-9-9-9-9-10-9-7-|----------------------------------7-7-7-7-|
 E|----------------------------------|-8-8-8----------10-10-10------------------|\
 B|----------------------------------|------------------------------------------| \
                                                                                   x2
 B|------------------------------------------|----------------------------------| /
F#|------------------------------------------|----------------------------------|/
 D|----------------------------7-7-----------|----------------------------------|
 A|-10-10-10-10-10-10-10-10-10--------10-10--|----------9-9-9-------------------|
 E|--------------------------------10-7--8---|-10-10-10-------11-11-11----------|
 B|------------------------------------------|----------------------------------|

-----------------------------------------------------------------------------------------
|                                    OUTRO (03:28-03:43)                                |
-----------------------------------------------------------------------------------------

Guitars 1 and 2 (w/ dist)

                                             ..............
 B|---------------------------|----------------------------|
F#|---------------------------|----------------------------|
 D|---------------------------|-----------------------0----| x2
 A|---------------------------|--------------------3-------|
 E|-3--2--------3--2----------|-3--2---------1-------------|
 B|-1--0--0-0-0-1--0--0-0-0-0-|-1--0--0-0-0----------------|
          * * *       * * * *         * * *

            
Submit corrections


        Generation Dead  lessons Hard to play? Try these video lessons and learn fast Generation Dead  lessons
        
↑ Back to top | Tablatures and chords for acoustic guitar and electric guitar, ukulele, drums are parodies/interpretations of the original songs. You may use it for private study, scholarship, research or language learning purposes only