» » »

Five Finger Death Punch - Fake Tabs

Artists:  A B C D E F G H I J K L M N O P Q R S T U V W X Y Z # 

Fake Tabs

(ver. 1) Click to play this song!
Five Finger Death Punch
 Rating:
4.3/5 (19 votes)

 Fake lessons Tabs too difficult? Try these video lessons and learn fast
 
                [Main riff]
C#|------------------------------------------------|
G#|------------------------------------------------|
E |------------------------------------------------|
B |------------------------------------------------|
F#|-------------5----------------------------------|
B |-0--0-0-3-0----5(b)6---0---0---0-0-3-0--5(b)6-0-|

C#|----------------------------------------------------|
G#|----------------------------------------------------|
E |----------------------------------------------------|
B |----------------------------------------------------|
F#|----------------------------3-----------------------|
B |-0---0---0-0-3-0--5(b)6-0---3-3-3-3-3-3-3-3-3-3-3-3-|

[Verse]
C#|--------------------------------------|
G#|--------------------------------------|
E |--------------------------------------|
B |--------------------------------------|
F#|----------------------------------1---|
B |---0-0-0-0-0-0-0-0-0-0-0-0-0-0-0--1---|

C#|---------------------------------------|
G#|---------------------------------------|
E |---------------------------------------|
B |---------------------------------------|
F#|----------------------------3--0-----3-|
B |---0-0-0-0-0-0-0-0-0-0-0-0-------3-----|

[Pre-Chorus]
C#|--------------------------------------|
G#|--------------------------------------|
E |--------------------------------------|
B |--6-5---------------------------------|
F#|--4-3---6-5--4-3--2-1--4-3-4-1-0------|
B |--------6-5--4-3--2-1--4-3-4-1-0------|

[Break]
C#|---------------------------------------|
G#|---------------------------------------|
E |---------------------------------------|
B |-------------6-5-----------------------|
F#|-------------4-3-0-0-6-5-0-0-3-0-0-2-1-|
B |--0--0---0-0-----0-0-6-5-0-0-3-0-0-2-1-|

C#|-------------------------------------------|
G#|-------------------------------------------|
E |-------------------------------------------|
B |--------------6-5--------------------------|
F#|--------------4-3--0-0-----------6-5-------|
B |--0--0--0-0-----0--0-6-5-8-7-0-0-----8-1-0-|

[Bridge]
    (from what i could hear, this should be repeated 3 times. idk)
C#|---------------------------------| 
G#|---------------------------------|
E |---------------------------------|
B |---------------------------------|
F#|---------------------------------|
B |-0-0-0-0-0-0-0-0-8-0-0-0-10-8-0--|

C#|---------------------|
G#|---------------------|
E |---------------------|
B |---------------------|
F#|---------------------|
B |-11--10---9--8--7--6-|
            
Submit corrections


        Fake lessons Hard to play? Try these video lessons and learn fast Fake lessons
        
↑ Back to top | Tablatures and chords for acoustic guitar and electric guitar, ukulele, drums are parodies/interpretations of the original songs. You may use it for private study, scholarship, research or language learning purposes only