» » »

Five Finger Death Punch - Dying Breed Tabs

Artists:  A B C D E F G H I J K L M N O P Q R S T U V W X Y Z # 

Dying Breed Tabs

(ver. 1) Click to play this song!
Five Finger Death Punch
 Rating:
4/5 (4 votes)

 Dying Breed  lessons Tabs too difficult? Try these video lessons and learn fast
 
                                                  Tuning: 6 string BEADF#B
 
-----------------------------------------------------------------------------------------
|                                    INTRO (00:00-00:10)                                |
-----------------------------------------------------------------------------------------

Guitars 1 and 2 (w/ dist)

 B|-----------------------------|-----------------------------|
F#|-----------------------------|-----------------------------|
 D|-----------------------------|-----------------------------|
 A|------------2------2---------|-----------------------------| x3
 E|------------2------2---------|-----------------------------|
 B|-5-4-3-2-0--0------0------0--|-3-4-3-2-0--0--5-4-3-2-0--0--|
    * * * * *                *    * * * * *  *  * * * * *  *
 B|-----------------------------|---------------------------|
F#|-----------------------------|---------------------------|
 D|-----------------------------|---------------------------|
 A|------------2------2---------|---------------2-----------|
 E|------------2------2---------|---------------2-----------|
 B|-5-4-3-2-0--0------0------0--|-3-4-3-2-0--0--0-----------|
    * * * * *                *    * * * * *  *  

-----------------------------------------------------------------------------------------
|                                   VERSE (00:10-00:30)                                 |
-----------------------------------------------------------------------------------------

Guitars 1 and 2 (w/ dist)

 B|-----------------------------|-----------------------------|
F#|-----------------------------|-----------------------------|
 D|-----------------------------|-----------------------------|
 A|------------2------2---------|-----------------------------| x4
 E|------------2------2---------|-----------------------------|
 B|-5-4-3-2-0--0------0------0--|-3-4-3-2-0--0--5-4-3-2-0--0--|
    * * * * *                *    * * * * *  *  * * * * *  *

 B|----------------------|-----------------------------|
F#|----------------------|-----------------------------|
 D|----------------------|-----------------------------| x4
 A|-3---2----------------|-----------------------------|
 E|-3---2----------------|-----------------------------|
 B|-1---0---0--0------0--|----0--0-0-0-0-0--0--0-0-0-0-|
            *  *      *       *  * * * * *  *  * * * *
                          
-----------------------------------------------------------------------------------------
|                                    CHORUS (00:30-00:49)                               |
-----------------------------------------------------------------------------------------

Guitars 1 and 2 (w/ dist)
                                                                      ------------|
 B|-------|--------------|-------|--------------|------|-------------------|      |
F#|-------|--------------|-------|--------------|------|-------------------|      |
 D|-------|--------------|-------|--------------|-5----|---------5---------|      |
 A|-7-----|----7---------|-3-----|----3---------|-5----|---------5---------|      |
 E|-7-----|----7---------|-3-----|----3---------|-3----|---3--3--3---3--3--|      |
 B|-5-----|----5---0--0--|-1-----|----1---0--0--|------|-------------------|      |
                   *  *                   *  *             *  *      *  *         | x2
 B|-------------------------|--------------------------------|                    |
F#|-------------------------|--------------------------------|                    |
 D|-5-s7-----7-s9-----9-s10-|----10-s12------12-s10--10-s9---|                    |
 A|-x-sx-----x-sx-----x-sx--|----x--sx-------x--sx---x--sx---|                    |
 E|-3-s5--5--5-s7--7--7-s8--|-8--8--s10--10--10-s8---8--s7---|                    |
 B|-------------------------|--------------------------------|                    |
          *        *          *          *               -------------------------|

Guitar 3 (w/ dist)

 B|---------|---------|-------|---------|-------|------------|-------|-------|
F#|-/s10----|---------|-------|---------|-------|------------|-------|-------|
 D|---------|-----9---|-10----|-----7---|-9-----|----9--s5---|-7-----|-------| x2
 A|---------|---------|-------|---------|-------|------------|-------|-------|
 E|---------|---------|-------|---------|-------|------------|-------|-------|
 B|---------|---------|-------|---------|-------|------------|-------|-------|

-----------------------------------------------------------------------------------------
|                                  INTERLUDE (00:49-01:00)                              |
-----------------------------------------------------------------------------------------

Guitars 1 and 2 (w/ dist)

1 bar empty, then:

 B|-----------------------------|-----------------------------|
F#|-----------------------------|-----------------------------|
 D|-----------------------------|-----------------------------|
 A|------------2------2---------|-----------------------------| x3
 E|------------2------2---------|-----------------------------|
 B|-5-4-3-2-0--0------0------0--|-3-4-3-2-0--0--5-4-3-2-0--0--|
    * * * * *                *    * * * * *  *  * * * * *  *
 B|-----------------------------|-----------------------------|
F#|-----------------------------|-----------------------------|
 D|-----------------------------|-----------------------------|
 A|------------2------2------2--|-----------------------------|
 E|------------2------2------2--|-----------------------------|
 B|-5-4-3-2-0--0------0------0--|-----------------------------|
    * * * * *

-----------------------------------------------------------------------------------------
|                                   VERSE 2 (01:00-01:20)                               |
-----------------------------------------------------------------------------------------
                                        same as VERSE
-----------------------------------------------------------------------------------------
|                                   CHORUS 2 (01:20-01:39)                              |
-----------------------------------------------------------------------------------------
                                       same as CHORUS
-----------------------------------------------------------------------------------------
|                                    BRIDGE (01:39-02:00)                               |
-----------------------------------------------------------------------------------------

Guitars 1 and 2 (w/ dist)

 B|-----------------------------|
F#|-----------------------------|
 D|-----------------------------|
 A|-----------------------------|
 E|-----------------------------|
 B|-3-4-3-2-0--0--5-4-3-2-0--0--|
    * * * * *  *  * * * * *  *
 B|-----------------------------|-----------------------------|
F#|-----------------------------|-----------------------------|
 D|-----------------------------|-----------------------------|
 A|------------2------2---------|-----------------------------| x8
 E|------------2------2---------|-----------------------------|
 B|-5-4-3-2-0--0------0------0--|-3-4-3-2-0--0--5-4-3-2-0--0--|
    * * * * *                *    * * * * *  *  * * * * *  *

Guitar 3 (w/ dist)

 B|-------------------|------|------|------|------------|------|------------|-----------------|
F#|-------------------|------|------|------|------------|------|------------|-----------------|
 D|-------------------|------|------|------|------------|------|------------|-----------------|
 A|-------------------|------|------|------|------------|------|------------|-----------------|
 E|------0-h2---5b----|------|------|------|-----5b-----|------|----5b\\\\\\|\\-------16s\----|
 B|-------------------|------|------|------|------------|------|------------|-----------------|
                                                 +
 B|-------------------|---------------------------|
F#|-------------------|---------------------------|
 D|------10s9---------|------------------9-s10s7--| x3
 A|------10s9---------|------------------9-s10s7--|
 E|-------------------|---------------------------|
 B|-0--------------0--|-0----------0--0-----------|
                   *    *          *  * 
 B|------------------------|----------------------------|
F#|------------------------|----------------------------|
 D|------------------------|----------------------------|
 A|------------------------|-------------10------9------|
 E|-5-s7-----7-s8-----8s10-|----10s12--------12-----10--|
 B|-------0--------0-------|-0--------0-----------------|
          *        *         *        *

-----------------------------------------------------------------------------------------
|                                     SOLO (02:00-02:21)                                |
-----------------------------------------------------------------------------------------

Guitars 1 and 2 (w/ dist) - Rhythm for SOLO
                                                                      ------------|
 B|-------|--------------|-------|--------------|------|-------------------|      |
F#|-------|--------------|-------|--------------|------|-------------------|      |
 D|-------|--------------|-------|--------------|-5----|---------5---------|      |
 A|-7-----|----7---------|-3-----|----3---------|-5----|---------5---------|      |
 E|-7-----|----7---------|-3-----|----3---------|-3----|---3--3--3---3--3--|      |
 B|-5-----|----5---0--0--|-1-----|----1---0--0--|------|-------------------|      |
                   *  *                   *  *             *  *      *  *         | x2
 B|-------------------------|--------------------------------|                    |
F#|-------------------------|--------------------------------|                    |
 D|-5-s7-----7-s9-----9-s10-|----10-s12------12-s10--10-s9---|                    |
 A|-x-sx-----x-sx-----x-sx--|----x--sx-------x--sx---x--sx---|                    |
 E|-3-s5--5--5-s7--7--7-s8--|-8--8--s10--10--10-s8---8--s7---|                    |
 B|-------------------------|--------------------------------|                    |
          *        *          *          *               -------------------------|

Guitar 3 (w/ dist) - SOLO

 B|-------|----------------12-17-15-12----------|
F#|-------|-------------13-------------12-13-15-|
 D|-------|----------12-------------------------|
 A|-------|-------14----------------------------|
 E|-12~~~~|-12-15-------------------------------|
 B|-------|-------------------------------------|

 B|-12---13---------|---------------|------------------|----------------|
F#|-------------15~~|--s\---13--15--|-15b--------------|----------------|
 D|-----------------|---------------|-------12s14--12~~|~~~s\---12--14--|
 A|-----------------|---------------|------------------|----------------|
 E|-----------------|---------------|------------------|----------------|
 B|-----------------|---------------|------------------|----------------|

 B|-----------------|-------15--19--|-19b-pb19-pb19--r~|~~~~~~~s\--|
F#|-------13----15--|--15b----------|------------------|-----------|
 D|-14b-------------|---------------|------------------|-----------|
 A|-----------------|---------------|------------------|-----------|
 E|-----------------|---------------|------------------|-----------|
 B|-----------------|---------------|------------------|-----------|

 B|-24-23-22-20-------------------------|---------------------------------------|
F#|-------------22-20-17-16-15-13-------|------------------------------------13-|
 D|-------------------------------14-12-|-------------------12------------12----|
 A|-------------------------------------|-14-13-12-10----10-12----10-/s14-------|
 E|-------------------------------------|-------------12-------12---------------|
 B|-------------------------------------|---------------------------------------|

 B|----------17---------|-----------------|-------------------------------------------12----|
F#|----------17-20------|-----------------|-------12-------12-13p12----------12-13-15----13-|
 D|-12-19b---------19b--|--------\s9------|-12-14----12-14----------12-12-14----------------|
 A|---------------------|-------------x---|-------------------------------------------------|
 E|---------------------|-----------------|-------------------------------------------------|
 B|---------------------|-----------------|-------------------------------------------------|

 B|-------------------------------------------17-19-|----------|
F#|----17-17-17-17-------17-17-19-20-17-19-20-------|-20b~~~~~~|
 D|-19-------------17-19----------------------------|----------|
 A|-------------------------------------------------|----------|
 E|-------------------------------------------------|----------|
 B|-------------------------------------------------|----------|

Guitar 4 (w/ dist) - Harmony for SOLO

 B|-------|----------------15-20-19-------------|
F#|-------|-------------17----------20----17-18-|
 D|-------|----------16----------------19-------|
 A|-------|-------17----------------------------|
 E|-15~~~~|-15-19-------------------------------|
 B|-------|-------------------------------------|

 B|------17---------|---------------|------------------|----------------|
F#|-20----------18~~|--s\---17--18--|-18b--------------|----------------|
 D|-----------------|---------------|-------16s17--16~~|~~~s\---16--17--|
 A|-----------------|---------------|------------------|----------------|
 E|-----------------|---------------|------------------|----------------|
 B|-----------------|---------------|------------------|----------------|

 B|-----------------|---------19--22--|-22b-pb22-pb22-r~|~~~~~~~~s\--|
F#|-------17----18--|---18b-----------|-----------------|------------|
 D|-17b-------------|-----------------|-----------------|------------|
 A|-----------------|-----------------|-----------------|------------|
 E|-----------------|-----------------|-----------------|------------|
 B|-----------------|-----------------|-----------------|------------|

-----------------------------------------------------------------------------------------
|                                   CHORUS 3 (02:21-02:41)                              |
-----------------------------------------------------------------------------------------
                                        same as CHORUS
-----------------------------------------------------------------------------------------
|                                     OUTRO (02:41-02:54)                               |
-----------------------------------------------------------------------------------------

Guitars 1 and 2 (w/ dist)

1 bar empty, then:

 B|-----------------------------|-----------------------------|
F#|-----------------------------|-----------------------------|
 D|-----------------------------|-----------------------------|
 A|------------2------2---------|-----------------------------| x4
 E|------------2------2---------|-----------------------------|
 B|-5-4-3-2-0--0------0------0--|-3-4-3-2-0--0--5-4-3-2-0--0--|
    * * * * *                *    * * * * *  *  * * * * *  *
            
Submit corrections


        Dying Breed  lessons Hard to play? Try these video lessons and learn fast Dying Breed  lessons
        
↑ Back to top | Tablatures and chords for acoustic guitar and electric guitar, ukulele, drums are parodies/interpretations of the original songs. You may use it for private study, scholarship, research or language learning purposes only