» » »

Five Finger Death Punch - Digging My Own Grave Tabs

Artists:  A B C D E F G H I J K L M N O P Q R S T U V W X Y Z # 

Digging My Own Grave Tabs

(ver. 1) Click to play this song!
Five Finger Death Punch
 Rating:
4.1/5 (31 vote)

 Digging My Own Grave lessons Tabs too difficult? Try these video lessons and learn fast
 
                [Intro]

B |--------------------------------------------------------------------------|
F#|--------------------------------------------------------------------------|
D |----4-2-----------4-2----------4-2--------4-5-----5-4---------------------|
A |----------------5------------5----------5-------5-------------------------|
E |--------------------------------------2-------0---------------------------|
B |-0-3--------0-3----------3-5----------------------------------------------|

B |--------------------------------------------------------------------------|
F#|--------------------------------------------------------------------------|
D |----4-2-----------4-2----------4-2--------4-5-----5-4---------------------|
A |----------------5------------5----------5-------5-------------------------|
E |--------------------------------------2-------0---------------------------|
B |-0-3--------0-3----------3-5----------------------------------------------|            
Submit corrections


        Digging My Own Grave lessons Hard to play? Try these video lessons and learn fast Digging My Own Grave lessons
        
↑ Back to top | Tablatures and chords for acoustic guitar and electric guitar, ukulele, drums are parodies/interpretations of the original songs. You may use it for private study, scholarship, research or language learning purposes only