» » »

Five Finger Death Punch - Bad Company Tabs

Artists:  A B C D E F G H I J K L M N O P Q R S T U V W X Y Z # 

Bad Company Tabs

(ver. 2) Click to play this song!
Five Finger Death Punch
 Rating:
4/5 (7 votes)


 Bad Company lessons Tabs too difficult? Try these video lessons and learn fast
 
                Five Finger Death Punch- Bad Company

This should be pretty close to the original Death Punch version. 
If you find something wrong let me know and I'll fix it.
Enjoy

|------------------------------------------------------------------------|
|--11h14p11-13b15------10h-11p10-----------------------------------------|
|--------------------------------12b14--12b14---10-12-12-9-10-12-10b12---|
|------------------------------------------------------------------------|
|------------------------------------------------------------------------|
|------------------------------------------------------------------------|

|-----------------------------------------------------------------------------------|
|-----------------------------------11-14-11-14-11-13b15---10h-11p10----------------|
|-----------------------12-14-12-14----------------------------------12b14--12b14---|
|--------------12-14-15-------------------------------------------------------------|
|-----12-14-15----------------------------------------------------------------------|
|--15-------------------------------------------------------------------------------|

|-----------------------------------------------------------------------------|
|-----------------------------------------------------------------------------|
|--10-12-12-9-10-12-10b12----------------------12h14p12h14p12h14p12h14p12-----|
|-------------------------------------12-14-15---------------------------12---|
|----------------------------12-14-15-----------------------------------------|
|-------------------------15--------------------------------------------------|

|--22p-18p17-------22p-18p17--------22p-18p17---------|
|------------18p17-----------18p-17-----------18p17---|
|-----------------------------------------------------|
|-----------------------------------------------------|
|-----------------------------------------------------|
|-----------------------------------------------------|

|--18p17-20p17-18p17-15h-17p15-13h-15p13-11h-13p------------13------13----------|
|-------------------------------------------13-11-13b15---13b15---13b15-13b15---|
|-------------------------------------------------------------------------------|
|-------------------------------------------------------------------------------|
|-------------------------------------------------------------------------------|
|-------------------------------------------------------------------------------|

|----------------------------------------------------------------------------|
|------------------------------------------21b23---------------22b24-23-22---|
|--10-12b14--12p10-----------------------------------------------------------|
|------------------12-10-12------19h-21p19-----------20h-22p20---------------|
|----------------------------------------------------------------------------|
|----------------------------------------------------------------------------|

|--21p17--18p17-----------21p17--18p17------------------------------18p17--21-22---|
|----------------------18p17---------------------18p17--20p-17-18p17---------------|
|----------------------------------------------------------------------------------|
|----------------------------------------------------------------------------------|
|----------------------------------------------------------------------------------|
|----------------------------------------------------------------------------------|
            
Submit corrections



        Bad Company lessons Hard to play? Try these video lessons and learn fast Bad Company lessons
        
↑ Back to top | Tablatures and chords for acoustic guitar and electric guitar, ukulele, drums are parodies/interpretations of the original songs. You may use it for private study, scholarship, research or language learning purposes only