» » »

Five Finger Death Punch - Aint My Last Dance Tabs

Artists:  A B C D E F G H I J K L M N O P Q R S T U V W X Y Z # 

Aint My Last Dance Tabs

(ver. 1) Click to play this song!
Five Finger Death Punch
 Rating:
4.4/5 (11 votes)

 Aint My Last Dance  lessons Tabs too difficult? Try these video lessons and learn fast
 
                [Intro & Verse]

    first chord below is doubled the first time through (eighth before bar starts)   
C#|---------------------------|---------------------------|---------------------------|
G#|---------------------------|---------------------------|---------------------------|
E |---------------------------|---------------------------|---------------------------|
B |-3--2-------------------3--|-3--2-------------------3--|-3--2-------------------3--|
F#|-3--2-------------------3--|-3--2-------------------3--|-3--2-------------------3--|
C#|-------2--2--2-2-2--2-2----|-------2--2--2-2-2--2-2----|-------2--2--2-2-2--2-2----|
          PM**************            PM**************            PM**************

C#|-------------------------|
G#|-------------------------|
E |-------------------------|
B |-3--2-----3--2--0-----3--|
F#|-3--2-----3--2--0-----3--|
C#|-------------------------|

Play 2x for intro, 2x for Verse


[Prechorus]
C#|-------------------------|-------------------------|
G#|-------------------------|-------------------------|
E |-------------------------|-------------------------|
B |-5--2--2--5--2--2--5-----|-5--2--2--5--2--2--5/7---|
F#|-5--2--2--5--2--2--5-----|-5--2--2--5--2--2--5/7---|
B |-------------------------|-------------------------|



[Chorus]

    Guitar 1 - let last chord ring in each bar
C#|----------------|----------------|----------------|----------------|----------------|----------------|
G#|----------------|----------------|----------------|----------------|----------------|----------------|
E |----------------|----------------|----------------|----------------|----------------|----------------|
B |----------5-----|------------5/7-|----------------|----------------|----------2-----|----------------|
F#|----------5-----|------------5/7-|----------0-----|------------5p0-|----------2-----|----------------|
B |-5--5--5--5-----|------------5/7-|-0--0--0--0-----|------------5p0-|-2--2--2--2-----|--------2p0-5p0-|
  | PM*****                           PM*****                           PM*****
  |
  | Guitar 2
C#|---------10-----|---------10-----|----------------|----------------|----------------|----------------|
G#|----------------|-------------12-|---------10-----|---------10-----|---------12-----|---------12-----|
E |-----12------12-|-----12---------|-----12------12-|-----12------12-|-----12------12-|-----12------12-|
B |-12-------------|-12-------------|-12-------------|-12-------------|-12-------------|-12-------------|
F#|----------------|----------------|----------------|----------------|----------------|----------------|
B |----------------|----------------|----------------|----------------|----------------|----------------|


    Guitar 1
C#|-----------------|--------------------|
G#|-----------------|--------------------|
E |-----------------|--------------------|  play Chorus 2x
B |----------2------|--------------2-0---|
F#|----------2------|--------------2-0---|
B |-2--2--2--2------|-2-2-2--2--2--2-0---|
  | PM*****           PM*********
  |
  | Guitar 2
C#|-----------------|--------------------|
G#|---------10------|---------10---------|
E |-----12------12--|-----12------12-----|
B |-12--------------|-12-----------------|
F#|-----------------|--------------------|
B |-----------------|--------------------|


[Verse 2]
    play 3x - lyrics start on 2nd time, same PM rhythm as before
C#|---------------------------|---------------------------|---------------------------|
G#|---------------------------|---------------------------|---------------------------|
E |---------------------------|---------------------------|---------------------------|
B |-3--2-------------------3--|-3--2-------------------3--|-3--2-------------------3--|
F#|-3--2-------------------3--|-3--2-------------------3--|-3--2-------------------3--|
B |-------2--2--2-2-2--2-2----|-------2--2--2-2-2--2-2----|-------2--2--2-2-2--2-2----|

C#|-------------------------|
G#|-------------------------|
E |-------------------------|
B |-3--2-----3--2--0-----3--|
F#|-3--2-----3--2--0-----3--|
B |-------------------------|

Play 2x for intro, 2x for Verse


[Prechorus 2]
C#|-------------------------|-------------------------|
G#|-------------------------|-------------------------|
E |-------------------------|-------------------------|
B |-5--2--2--5--2--2--5-----|-5--2--2--5--2--2--5/7---|
F#|-5--2--2--5--2--2--5-----|-5--2--2--5--2--2--5/7---|
B |-------------------------|-------------------------|



[Chorus 2]

    Guitar 1 - let last chord ring in each bar
C#|----------------|----------------|----------------|----------------|----------------|----------------|
G#|----------------|----------------|----------------|----------------|----------------|----------------|
E |----------------|----------------|----------------|----------------|----------------|----------------|
B |----------5-----|------------5/7-|----------------|----------------|----------2-----|----------------|
F#|----------5-----|------------5/7-|----------0-----|------------5p0-|----------2-----|----------------|
B |-5--5--5--5-----|------------5/7-|-0--0--0--0-----|------------5p0-|-2--2--2--2-----|--------2p0-5p0-|
  | PM*****                           PM*****                           PM*****
  |
  | Guitar 2
C#|---------10-----|---------10-----|----------------|----------------|----------------|----------------|
G#|----------------|-------------12-|---------10-----|---------10-----|---------12-----|---------12-----|
E |-----12------12-|-----12---------|-----12------12-|-----12------12-|-----12------12-|-----12------12-|
B |-12-------------|-12-------------|-12-------------|-12-------------|-12-------------|-12-------------|
F#|----------------|----------------|----------------|----------------|----------------|----------------|
B |----------------|----------------|----------------|----------------|----------------|----------------|


    Guitar 1
C#|-----------------|--------------------|
G#|-----------------|--------------------|
E |-----------------|--------------------|  play Chorus 2x
B |----------2------|--------------2-0---|
F#|----------2------|--------------2-0---|
B |-2--2--2--2------|-2-2-2--2--2--------|
  | PM*****           PM*********
  |
  | Guitar 2
C#|-----------------|--------------------|
G#|---------10------|---------10---------|
E |-----12------12--|-----12------12-----|
B |-12--------------|-12-----------------|
F#|-----------------|--------------------|
B |-----------------|--------------------|



[Solo]

C#|-17~-----------15-|-14b15~--------r14-|-12h14--------------|------------------|
G#|------------------|-------------------|-------15b17~-------|------------------|
E |------------------|-------------------|--------------------|------------------|
B |------------------|-------------------|--------------------|------------------|
F#|------------------|-------------------|--------------------|------------------|
B |------------------|-------------------|--------------------|------------------|

C#|-17~-----------15-|-14b15r--------------17-19-20-|-19~-------------|-22-----20----------19-20-22-|
G#|------------------|-------------17-19-20---------|-----------------|------------19-20-22---------|
E |------------------|------------------------------|-----------------|-----------------------------|
B |------------------|------------------------------|-----------------|-----------------------------|
F#|------------------|------------------------------|-----------------|-----------------------------|
B |------------------|------------------------------|-----------------|-----------------------------|

C#|-22b24~------24r22p19-|-22--24~------19-20-22-|-22~-------22--22~|--------------|
G#|----------------------|-----------------------|------------------|--------------|
E |----------------------|-----------------------|------------------|--------------|
B |----------------------|-----------------------|------------------|--------------|
F#|----------------------|-----------------------|------------------|--------------|
B |----------------------|-----------------------|------------------|--------------|

    * Harmonizer is added here
C#|---------------19-----|--19-------------------|----------------------------------|
G#|-20---------------20--|-----20---19~~---------|-19h20p19-17h19p17---20-----19----|
E |----------------------|-----------------------|-------------------19--19-17--17--|
B |----------------------|-----------------------|----------------------------------|
F#|----------------------|-----------------------|----------------------------------|
B |----------------------|-----------------------|----------------------------------|

C#|------------------------------|--------------|
G#|---17-----15-----13---12------|-15b17~~~~----|
E |-16--16-14--14-12--12---14p12-|--------------|
B |------------------------------|--------------|
F#|------------------------------|--------------|
B |------------------------------|--------------|



[Solo Rhythm Part]

    play these lines 2x
C#|-----------------------|-----------------------|----------------------|----------------|
G#|-----------------------|-----------------------|----------------------|----------------|
E |-----------------------|-----------------------|----------------------|----------------|
B |-----------------------|-----------------------|-------------5--------|----------------|
F#|-0---0---0---0---------|-0---0---0---0---------|-3---3---3---3--------|----------------|
B |-0---0---0---0----5h7--|-0---0---0---0----7p0--|-5---5---5------------|----------------|
    PM*******          

C#|-----------------------|-----------------------|----------------------|--------------------|
G#|-----------------------|-----------------------|----------------------|--------------------|
E |-----------------------|-----------------------|----------------------|--------------------|
B |-----------------------|-----------------------|-------2---------4----|------5-------------|
F#|-0---0---0---0---------|-0---0---0---0---------|----------------------|--------------------|
B |-0---0---0---0----5h7--|-0---0---0---0----7p0--|-2--------2-4-------4-|-5-------5--7---9---|


[Bridge]
C#|-------------------|--------------------|
G#|-------------------|--------------------|
E |-------------------|--------------------|
B |-------------------|--------------------|
F#|-10----------------|--------------------|
B |-10----------------|--------------------|

C#|-----------------------|-----------------------|-----------------------|-------------------------|
G#|-----------------------|-----------------------|-----------------------|-------------------------|
E |-----------------------|-----------------------|-----------------------|-------------------------| play
B |-----------------------|-----------------------|-----------------------|-------------------------| 4x
F#|-0---1---2---3-----3---|-0---1---2---3-----3---|-0---1---2---3-----3---|-6-----3--3--6-----3--3--|
B |-0---1---2---3-----3---|-0---1---2---3-----3---|-0---1---2---3-----3---|-6-----3--3--6-----3--3--|

C#|-------------------------|-------------------------|
G#|-------------------------|-------------------------|
E |-------------------------|-------------------------|
B |-------------------------|-------------------------|
F#|-8-----3--3--8-----3--3--|-9-----3--3--8-----3--3--|
B |-8-----3--3--8-----3--3--|-9-----3--3--8-----3--3--|



[Final Chorus]

C#|-----------------|--------------------|
G#|-----------------|--------------------|
E |-----------------|--------------------|
B |-5---------------|--------------------|
F#|-5---------------|--------------------|
B |-5---------------|--------------------|


    Guitar 1
C#|----------------|----------------|----------------|----------------|
G#|----------------|----------------|----------------|----------------|
E |----------------|----------------|----------------|----------------|
B |----------------|----------------|----------2-----|----------------|
F#|----------0-----|------------5p0-|----------2-----|----------------|
B |-0--0--0--0-----|------------5p0-|-2--2--2--2-----|--------2p0-5p0-|
  | PM*****                           PM*****
  |
  | Guitar 2
C#|----------------|----------------|----------------|----------------|
G#|---------10-----|---------10-----|---------12-----|---------12-----|
E |-----12------12-|-----12---------|-----12------12-|-----12------12-|
B |-12-------------|-12-------------|-12-------------|-12-------------|
F#|----------------|----------------|----------------|----------------|
B |----------------|----------------|----------------|----------------|


    Guitar 1
C#|-----------------|--------------------|
G#|-----------------|--------------------|
E |-----------------|--------------------|
B |----------2------|--------------2-0---|
F#|----------2------|--------------2-0---|
B |-2--2--2--2------|-2-2-2--2--2--2-0---|
  | PM*****           PM*********
  |
  | Guitar 2
C#|-----------------|--------------------|
G#|---------10------|---------10---------|
E |-----12------12--|-----12------12-----|
B |-12--------------|-12-----------------|
F#|-----------------|--------------------|
B |-----------------|--------------------|


   play next 8 bars 3x to finish Chorus

    Guitar 1 
C#|----------------|----------------|----------------|----------------|----------------|----------------|
G#|----------------|----------------|----------------|----------------|----------------|----------------|
E |----------------|----------------|----------------|----------------|----------------|----------------|
B |----------5-----|------------5/7-|----------------|----------------|----------2-----|----------------|
F#|----------5-----|------------5/7-|----------0-----|------------5p0-|----------2-----|----------------|
B |-5--5--5--5-----|------------5/7-|-0--0--0--0-----|------------5p0-|-2--2--2--2-----|--------2p0-5p0-|
  | PM*****                           PM*****                           PM*****
  |
  | Guitar 2
C#|---------10-----|---------10-----|----------------|----------------|----------------|----------------|
G#|----------------|-------------12-|---------10-----|---------10-----|---------12-----|---------12-----|
E |-----12------12-|-----12---------|-----12------12-|-----12------12-|-----12------12-|-----12------12-|
B |-12-------------|-12-------------|-12-------------|-12-------------|-12-------------|-12-------------|
F#|----------------|----------------|----------------|----------------|----------------|----------------|
B |----------------|----------------|----------------|----------------|----------------|----------------|


    Guitar 1
C#|-----------------|--------------------|
G#|-----------------|--------------------|
E |-----------------|--------------------|
B |----------2------|--------------2-0---|
F#|----------2------|--------------2-0---|
B |-2--2--2--2------|-2-2-2--2--2--2-0---|
  | PM*****           PM*********
  |
  | Guitar 2
C#|-----------------|--------------------|
G#|---------10------|---------10---------|
E |-----12------12--|-----12------12-----|
B |-12--------------|-12-----------------|
F#|-----------------|--------------------|
B |-----------------|--------------------|


[Outro]

C#|---------------------------|---------------------------|---------------------------|
G#|---------------------------|---------------------------|---------------------------|
E |---------------------------|---------------------------|---------------------------|
B |-3--2-------------------3--|-3--2-------------------3--|-3--2-------------------3--|
F#|-3--2-------------------3--|-3--2-------------------3--|-3--2-------------------3--|
B |-------2--2--2-2-2--2-2----|-------2--2--2-2-2--2-2----|-------2--2--2-2-2--2-2----|

C#|-------------------------|-------------------------|
G#|-------------------------|-------------------------|
E |-------------------------|-------------------------|
B |-3--2-----3--2--0-----3--|-3--2--------------------|
F#|-3--2-----3--2--0-----3--|-3--2--------------------|
B |-------------------------|-------------------------|
            
Submit corrections


        Aint My Last Dance  lessons Hard to play? Try these video lessons and learn fast Aint My Last Dance  lessons
        
↑ Back to top | Tablatures and chords for acoustic guitar and electric guitar, ukulele, drums are parodies/interpretations of the original songs. You may use it for private study, scholarship, research or language learning purposes only