Home » F » Fitz And The Tantrums »

Fitz And The Tantrums - Handclap Bass

Artists:  A B C D E F G H I J K L M N O P Q R S T U V W X Y Z # 

Handclap Bass

(ver. 1) Click to play this song!
Fitz And The Tantrums
[Intro]

G|------------------------------------------------------------|
D|------------------------------------------------------------|
A|-----------------11--11-11-10--10-10------------------------|
E|8--8-8-11--11-11---------------------8--8-8-11--11-11-4--4-4|


[Verse 1]

G|-------------------------------------------------------------------------|
D|-------------------------------------------------------------------------|
A|-----------------11--11-11-10--10-10------------------11--11-11-13--13-13| X2
E|8--8-8-11--11-11---------------------8--8-8-11--11-11--------------------|


[Chorus 1]

G|------------------------------------|
D|------------------------------------|
A|-----------------11-----11-10--10-10|
E|8----8-11-----11--------------------|

G|-------------------------------------------------------------------------|
D|-------------------------------------------------------------------------|
A|-----------------11--11-11-10--10-10------------------11--11-11-13--13-13| 
E|8--8-8-11--11-11---------------------8--8-8-11--11-11--------------------|


[Verse 2]

G|-------------------------------------------------------------------------|
D|-------------------------------------------------------------------------|
A|-----------------11--11-11-10--10-10------------------11--11-11-13--13-13| X2
E|8--8-8-11--11-11---------------------8--8-8-11--11-11--------------------|

G|-------------------------------------------------------------------------|
D|-------------------------------------------------------------------------|
A|-----------------11--11-11-10--10-10------------------11--11-11-10--10-10|
E|8--8-8-11--11-11---------------------8--8-8-11--11-11--------------------|

G|------------------------------------|
D|------------------------------------|
A|-----------------11--11-11-13--13-13| 
E|8--8-8-11--11-11--------------------|


[Pre Chorus]
(Starts half way through the line "We could be screamin' till the sun comes out")
G|-----------------------------------------------------------------------------------------------|
D|-----------------------------------------------------------------------------------------------|
A|----------------1-1-1-1-1-1-1-1-3-3-3-3-3-3-3-3---------------------------------1-1-1-1-1-1-1-1|
E|4-4-4-4-4-4-4-4---------------------------------3-3-3-3-3-3-3-3-4-4-4-4-4-4-4-4----------------|


[Chorus 2]

G|---------------------------------------------------------------|
D|---------------------------------------------------------------|
A|----------------1-1-1-1-1-1-1-1-3-3-3-3-3-3-3-3----------------| X2
E|4-4-4-4-4-4-4-4---------------------------------3-3-3-3-3-3-3-3|


[Verse 3]

G|-------------------------------------------------------------------------|
D|-------------------------------------------------------------------------|
A|-----------------11--11-11-10--10-10------------------11--11-11-13--13-13| X2
E|8--8-8-11--11-11---------------------8--8-8-11--11-11--------------------|

G|-------------------------------------------------------------------------|
D|-------------------------------------------------------------------------|
A|-----------------11--11-11-10--10-10------------------11--11-11-10--10-10|
E|8--8-8-11--11-11---------------------8--8-8-11--11-11--------------------|

G|------------------------------------|
D|------------------------------------|
A|-----------------11--11-11-13--13-13| 
E|8--8-8-11--11-11--------------------|


[Pre Chorus]
(Starts half way through the line "We could be screamin' till the sun comes out")
G|-----------------------------------------------------------------------------------------------|
D|-----------------------------------------------------------------------------------------------|
A|----------------1-1-1-1-1-1-1-1-3-3-3-3-3-3-3-3---------------------------------1-1-1-1-1-1-1-1|
E|4-4-4-4-4-4-4-4---------------------------------3-3-3-3-3-3-3-3-4-4-4-4-4-4-4-4----------------|


[Chorus 2]

G|---------------------------------------------------------------|
D|---------------------------------------------------------------|
A|----------------1-1-1-1-1-1-1-1-3-3-3-3-3-3-3-3----------------| X4
E|4-4-4-4-4-4-4-4---------------------------------3-3-3-3-3-3-3-3|


[Outro]

G|-------------------------------------------------------------------------|
D|-------------------------------------------------------------------------|
A|-----------------11--11-11-10--10-10------------------11--11-11-10--10-10|
E|8--8-8-11--11-11---------------------8--8-8-11--11-11--------------------|

            
Submit corrections

↑ Back to top | Tablatures and chords for acoustic guitar and electric guitar, ukulele, drums are parodies/interpretations of the original songs. You may use it for private study, scholarship, research or language learning purposes only