Home » F » First Aid Kit »

First Aid Kit - Wolf Tabs

Artists:  A B C D E F G H I J K L M N O P Q R S T U V W X Y Z # 

Wolf Tabs

(ver. 1) Click to play this song!
First Aid Kit
CAPO 3

Intro/Verse (v)
 Am
|------------------------------------------------|
|----1-1---1-----1-1---1-----1-1---1-----1-1---1-|
|----2-2---2-----2-2---2-----2-2---2-----2-2---2-|
|--2-----2-----2-----2-----2-----2-----2-----2---|
|0-----------0-----------0-----------0-----------|
|------------------------------------------------|

 C           Em          Am  
|------------------------------------------------|
|----1-1---1-----0-0---0-----1-1---1-----1-1---1-|
|----0-0---0-----0-0---0-----2-2---2-----2-2---2-|
|--2-----2-----2-----2-----2-----2-----2-----2---|
|3-----------2-----------0-----------0-----------|
|------------------------------------------------|



Chorus/Bridge (c)
 F           C           G           Am
|------------------------------------------------|
|----1-1---1-----1-1---1-----0-0---0-----1-1---1-|
|----2-2---2-----0-0---0-----0-0---0-----2-2---2-|
|--3-----3-----2-----2-----0-----0-----2-----2---|
|------------3-----------2-----------0-----------|
|1-----------------------------------------------|



LYRICS AND CHORDS (play as above)
(capo 3)


Am
  Wolf mother, where you been?
C             Em         Am
  You look so worn, so thin
Am
  You're a taker, devil's maker
         C            Em             Am
  Let me hear you sing, hey ya hey ya

Am
  Wolf father, at the door
C           Em          Am
  You don't smile any more
Am
  You're a drifter, shapeshifter
         C          Em             Am
  Let me see you run, hey ya hey ya


Am
  Holy light, oh, guard the night, oh
  C          Em         Am
  keep the spirits strong
Am  
  Watch it grow, child of wolf
  C    Em        Am
  Keep holdin' on


         F                         C          G                Am
  When I run through the deep dark forest long after this begun
            F              C              G                    Am
  Where the sun would set, trees were dead and the rivers were none
        F                   C           G               Am
  And I hope for a trace to lead me back home from this place
            F                       C      G           Am
  But there was no sound, there was only me and my disgrace


  F        C    G    Am
  Hey, hey-hey, hey, hey
  F        C    G    Am
  Hey, hey-hey, hey, hey
  F        C    G    Am
  Hey, hey-hey, hey, hey
  F        C    G    Am
  Hey, hey-hey, hey, ya.


Am
  Wolf mother, where you been?
C             Em         Am
  You look so worn, so thin
Am
  You're a taker, devil's maker
         C            Em             Am
  Let me hear you sing, hey ya hey ya

Am
  Wolf father, at the door
C           Em          Am
  You don't smile any more
Am
  You're a drifter, shapeshifter
         C          Em             Am
  Let me see you run, hey ya hey ya


Am
  Wayward winds, the voice that sings
     C    Em        Am
  of a forgotten land
Am
  See it fall, child of all
  C      Em         Am
  Lend a mending hand


         F                         C          G                Am
  When I run through the deep dark forest long after this begun
            F              C              G                    Am
  Where the sun would set, trees were dead and the rivers were none
        F                   C           G               Am
  And I hope for a trace to lead me back home from this place
            F                       C      G           Am
  But there was no sound, there was only me and my disgrace


  F        C    G    Am
  Hey, hey-hey, hey, hey
  F        C    G    Am
  Hey, hey-hey, hey, hey
  F        C    G    Am
  Hey, hey-hey, hey, hey
  F        C    G    Am
  Hey, hey-hey, hey, ya.

Am to end.            
Submit corrections

↑ Back to top | Tablatures and chords for acoustic guitar and electric guitar, ukulele, drums are parodies/interpretations of the original songs. You may use it for private study, scholarship, research or language learning purposes only