Home » F » Firefall »

Firefall - You Are The Woman Tabs

Artists:  A B C D E F G H I J K L M N O P Q R S T U V W X Y Z # 

You Are The Woman Tabs

(ver. 1) Click to play this song!
Firefall
 Rating:
4.2/5 (5 votes)
                Firefall
You Are The Woman(solo)
standard tuning

Legend
======
/=slide
~=hold
b=bend
r=release
p=pull-off
h=hammer-on

|-----------------------------------------------9------------9--12-------|
|------10/12--9--12--------------12--------10-------12--12---------------|
|---7---------------9--9~~~--9------11-11--------------------------------|
|-9----------------------------------------------------------------------|
|------------------------------------------------------------------------|
|------------------------------------------------------------------------|

|---12b-12br--12b~~~--r12--10-----10------10-----------------------------|
|-----------------------------12------12------9---10/7---10p9p7--7h9p7---|
|------------------------------------------------------------------------|
|------------------------------------------------------------------------|
|------------------------------------------------------------------------|
|------------------------------------------------------------------------|

|------------------------------------------------------------------------|
|------5--5/7-----------9---------9--9--7--------------7-----------------|
|--9-----------9--4--7------9--9-----------9--7------9-----6~~~~~--------|
|-------------------------------------------------7----------------------|
|------------------------------------------------------------------------|
|------------------------------------------------------------------------|
            
Submit corrections

↑ Back to top | Tablatures and chords for acoustic guitar and electric guitar, ukulele, drums are parodies/interpretations of the original songs. You may use it for private study, scholarship, research or language learning purposes only