» » »

Fiersa Besari - April Tabs

Artists:  A B C D E F G H I J K L M N O P Q R S T U V W X Y Z # 

April Tabs

(ver. 1) Click to play this song!
Fiersa Besari
 Rating:
4.3/5 (16 votes)

 April lessons Tabs too difficult? Try these video lessons and learn fast
 
                Pola Petikan 1 (Perhatikan senar bass)

   Asus2
 
e|-----0-----------0-------|
B|-------3-----------3-----|
G|---2-----2-----2------2--|
D|-------------------------|
A|-0-----------0-----------|
E|-------------------------|


Pola Petikan 2 (Perhatikan senar bass)

   Dsus2

e|-----0-----------0-------|
B|-------3-----------3-----|
G|---2-----2-----2------2--|
D|-0-----------0-----------|
A|-------------------------|
E|-------------------------|


[Verse]

Pakai Pola Petikan Diatas, Bassnya disesuaikan.

   Dsus2   F#m7#5  G6add9  -  Bm11   Asus4   G6add9

e|-0-------0-------0----------0------0-------0---------|
B|-3-------3-------3----------3------3-------3---------|
G|-2-------2-------2----------2------2-------3---------|
D|-0---------------------------------0-----------------|
A|----------------------------2------------------------|
E|---------2-------3-------------------------3---------|

Diulang 4X

[Pre Chorus]

Pakai Pola Petikan Diatas, Bassnya disesuaikan.
Untuk Pre Chorus, Tiap Chord dimainkan 2X

   Em7     F#m7#5  G6add9  -  Asus4   A

e|-0-------0-------0----------0-------0--------|
B|-3-------3-------3----------3-------2--------|
G|-0-------2-------2----------2-------2--------|
D|------------------------------------2--------|
A|----------------------------0-------0--------|
E|-0-------2-------3---------------------------|

[Chorus]

   Dsus2   A/C#    Bm11   A     G6add9  F#m7#5  Em7  Asus4

e|-0-------0-------0------0-----0-------0-------0----0-------|
B|-3-------0-------3------2-----3-------3-------3----3-------|
G|-2-------2-------2------2-----2-------2-------0----2-------|
D|-0---------------------------------------------------------|
A|---------4-------2------0--------------------------0-------|
E|------------------------------3-------2-------0------------|

            
Submit corrections


        April lessons Hard to play? Try these video lessons and learn fast April lessons
        
↑ Back to top | Tablatures and chords for acoustic guitar and electric guitar, ukulele, drums are parodies/interpretations of the original songs. You may use it for private study, scholarship, research or language learning purposes only