» » »

Feeder - Renegades Bass

Artists:  A B C D E F G H I J K L M N O P Q R S T U V W X Y Z # 

Renegades Bass

(ver. 1) Click to play this song!
Feeder
 Rating:
4.4/5 (14 votes)
    Renegades  lessons Tabs too difficult? Try these video lessons and learn fast
                [Intro]

G|-----------------------------------------------------------------|
D|-----------------------------------------------------------------|
A|-------------------------5---------------------------------------|
E|-2-------------------------------5-----------------------0-------|

G|-----------------------------------------------------------------|
D|-----------------------------------------------------------------|
A|-------------------------5---------------------------------------|
E|-2-------------------------------5-------------------------------|

G|-----------------------------------------------------------------|
D|-----------------------------------------------------------------|
A|-------------------------5---------------------------------------|
E|-2-------------------------------5-----------------------0-------|

G|-----------------------------------------------------------------|
D|-----------------------------------------------------------------|
A|-------------------------5---------------------------------------|
E|-2-------------------------------5-------------------------------|

[Verse]

G|-----------------------------------------------------------------|
D|-----------------------------------------------------------------|
A|-------------------------5-5-5---------------------------2-2-2---|
E|-2-2-2---2-2-2---2-2-2-----------5-5-5---5-5-5---5-5-5-----------|

G|-----------------------------------------------------------------|
D|-----------------------------------------------------------------|
A|-------------------------5-5-5-----------------------------------|
E|-2-2-2---2-2-2---2-2-2-----------5-5-5---5-5-5---5-5-5---0-0-0---|

G|-----------------------------------------------------------------|
D|-----------------------------------------------------------------|
A|-------------------------5-5-5---------------------------2-2-2---|
E|-2-2-2---2-2-2---2-2-2-----------5-5-5---5-5-5---5-5-5-----------|

G|-----------------------------------------------------------------|
D|-----------------------------------------------------------------|
A|-------------------------5-5-5-----------------------------------|
E|-2-2-2---2-2-2---2-2-2-----------5-5-5---5-5-5---5-5-5---0-0-0---|

[Pre-Chorus]

G|-----------------------------------------------------------------|
D|-----------------------------------------------------------------|
A|-2---2---2---2---2---2---4---4---5---5---5---5---5---5---5---5---|
E|-----------------------------------------------------------------|

G|-----------------------------------------------------------------|
D|-4---4---4---4---4---4---4---4---2---2---2---2---2---2---2---2---|
A|-----------------------------------------------------------------|
E|-----------------------------------------------------------------|

G|-----------------------------------------------------------------------|
D|---------------------------------------------------------2---2---------|
A|-2---2---2---2---2---2---4---4---5---5---5---5---5---5-----------5-5-5-|
E|-----------------------------------------------------------------------|

[Chorus]

G|-------------------------------------------------------------------------------|
D|-----------------------------------------4-4-4---4-4-4---2-2-2---2-2-2---0-0-0-|
A|-----------------0-0-0---2-2-2---5-5-5-----------------------------------------|
E|-2-2-2---2-2-2-----------------------------------------------------------------|

G|-----------------------------------------------------------------------|
D|-----------------------------------------4-4-4---4-4-4---2-2-2---------|
A|-----------------0-0-0---2-2-2---5-5-5---------------------------2-2-2-|
E|-2-2-2---2-2-2---------------------------------------------------------|

G|-----------------------------------------------------------------|
D|-----------------------------------------------------------------|
A|-------------------------5-5-5---------------------------2-x-----|
E|-2-2-2---2-2-2---2-2-2-----------5-5-5---5-5-5---5-5-5-----------|

[Verse]

G|-----------------------------------------------------------------|
D|-----------------------------------------------------------------|
A|-------------------------5-5-5---------------------------2-2-2---|
E|-2-2-2---2-2-2---2-2-2-----------5-5-5---5-5-5---5-5-5-----------|

G|-----------------------------------------------------------------|
D|-----------------------------------------------------------------|
A|-------------------------5-5-5-----------------------------------|
E|-2-2-2---2-2-2---2-2-2-----------5-5-5---5-5-5---5-5-5---0-0-0---|

G|-----------------------------------------------------------------|
D|-----------------------------------------------------------------|
A|-------------------------5-5-5---------------------------2-2-2---|
E|-2-2-2---2-2-2---2-2-2-----------5-5-5---5-5-5---5-5-5-----------|

G|-----------------------------------------------------------------|
D|-----------------------------------------------------------------|
A|-------------------------5-5-5-----------------------------------|
E|-2-2-2---2-2-2---2-2-2-----------5-5-5---5-5-5---5-5-5---0-0-0---|

[Pre-Chorus]

G|-----------------------------------------------------------------|
D|-----------------------------------------------------------------|
A|-2---2---2---2---2---2---4---4---5---5---5---5---5---5---5---5---|
E|-----------------------------------------------------------------|

G|-----------------------------------------------------------------|
D|-4---4---4---4---4---4---4---4---2---2---2---2---2---2---2---2---|
A|-----------------------------------------------------------------|
E|-----------------------------------------------------------------|

G|-----------------------------------------------------------------------|
D|---------------------------------------------------------2---2---------|
A|-2---2---2---2---2---2---4---4---5---5---5---5---5---5-----------5-5-5-|
E|-----------------------------------------------------------------------|

[Chorus]

G|-------------------------------------------------------------------------------|
D|-----------------------------------------4-4-4---4-4-4---2-2-2---2-2-2---0-0-0-|
A|-----------------0-0-0---2-2-2---5-5-5-----------------------------------------|
E|-2-2-2---2-2-2-----------------------------------------------------------------|

G|-----------------------------------------------------------------------|
D|-----------------------------------------4-4-4---4-4-4---2-2-2---2-2-2-|
A|-----------------0-0-0---2-2-2---5-5-5---------------------------------|
E|-2-2-2---2-2-2---------------------------------------------------------|

[Bridge]

G|-----------------------------------------------------------------|
D|-------------------------------------------------2---2---2---2---|
A|-5---5---5---5---2---2---2---2-----------------------------------|
E|---------------------------------2---2---2---2-------------------|

G|-----------------------------------------------------------------|
D|-------------------------------------------------2---2---2---2---|
A|-5---5---5---5---2---2---2---2-----------------------------------|
E|---------------------------------2---2---2---2-------------------|

G|---------------------------------|
D|---------------------------------|
A|-5---5---5---5---2---2---2---2---|
E|---------------------------------|

G|-----------------------------------------------------------------|
D|-----------------------------------------------------------------|
A|-------------------------5---------------------------------------|
E|-2-------------------------------5-----------------------0-------|

G|-----------------------------------------------------------------|
D|-----------------------------------------------------------------|
A|-------------------------5---------------------------------------|
E|-2-------------------------------5-------------------------------|

G|-----------------------------------------------------------------|
D|-----------------------------------------------------------------|
A|-------------------------5---------------------------------------|
E|-2-------------------------------5-----------------------0-------|

G|-----------------------------------------------------------------|
D|-----------------------------------------------------------------|
A|-------------------------5---------------------------------------|
E|-2-------------------------------5-------------------------------|

[Chorus]

G|-------------------------------------------------------------------------------|
D|-----------------------------------------4-4-4---4-4-4---2-2-2---2-2-2---0-0-0-|
A|-----------------0-0-0---2-2-2---5-5-5-----------------------------------------|
E|-2-2-2---2-2-2-----------------------------------------------------------------|

G|-------------------------------------------------------------------------------|
D|-----------------------------------------4-4-4---4-4-4---2-2-2---2-2-2---0-0-0-|
A|-----------------0-0-0---2-2-2---5-5-5-----------------------------------------|
E|-2-2-2---2-2-2-----------------------------------------------------------------|

G|-------------------------------------------------------------------------------|
D|-----------------------------------------4-4-4---4-4-4---2-2-2---2-2-2---0-0-0-|
A|-----------------0-0-0---2-2-2---5-5-5-----------------------------------------|
E|-2-2-2---2-2-2-----------------------------------------------------------------|

G|-------------------------------------------------------------------------------|
D|-----------------------------------------4-4-4---4-4-4---2-2-2-----------------|
A|-----------------0-0-0---2-2-2---5-5-5---------------------------2-2-2---------|
E|-2-2-2---2-2-2-----------------------------------------------------------2-x---|            
Submit corrections

↑ Back to top | Tablatures and chords for acoustic guitar and electric guitar, ukulele, drums are parodies/interpretations of the original songs. You may use it for private study, scholarship, research or language learning purposes only