» » »

Feeder - Insomnia Bass

Artists:  A B C D E F G H I J K L M N O P Q R S T U V W X Y Z # 

Insomnia Bass

(ver. 2) Click to play this song!
Feeder
 Rating:
4/5 (4 votes)


 Insomnia lessons Tabs too difficult? Try these video lessons and learn fast
 
                Song Title: Insomnia
Band name: Feeder

I'm pretty sure this is right, tabbed it by ear though, if you detect any major mistakes 
send me a message and I will change it for the better.
Enjoy this beautiful, subtle Feeder song :)

Intro/Verse,{0,06} :

G|----------------------------------------------------------------|
D|----------------------------------------------------------------|
A|----------------------------------------------------------------|
D|-3-3-3-3-3-3-3-3-3-3-3-3-3-3-3-3-0-0-0-0-0-0-0-0-8-8-8-8-8-8-8-8| x6

Pre-Chorus {0,35} :

|--------------------------------------|
|--------------------------------------|
|--------------------------------------|
|-7--8--8-8-8-8-8-8--7--8--8-8-8-8-8-8-| x2

Chorus {0,45} :

|-----------------------------------------------------------------|
|-----------------------------------------------------------------|
|-3-3-3-3-5-5-5-5-1-1-1-1---------3-3-3-3-5-5-5-5-1-1-1-1-8-8-8-8-|
|-------------------------3-3-3-3---------------------------------| x2

Verse 2 {0,55} :

|----------------------------------------------------------------|
|----------------------------------------------------------------|
|----------------------------------------------------------------|
|-3-3-3-3-3-3-3-3-3-3-3-3-3-3-3-3-0-0-0-0-0-0-0-0-8-8-8-8-8-8-8-8| x6

Pre-Chorus 2 {1,25} :

|--------------------------------------|
|--------------------------------------|
|--------------------------------------|
|-7--8--8-8-8-8-8-8--7--8--8-8-8-8-8-8-| x2

Chorus 2 {1,35} :

|-----------------------------------------------------------------|
|-----------------------------------------------------------------|
|-3-3-3-3-5-5-5-5-1-1-1-1---------3-3-3-3-5-5-5-5-1-1-1-1-8-8-8-8-|
|-------------------------3-3-3-3---------------------------------| x4

Fill {1,57} :

|-----------------------------------------------------------------|
|-----------------------------------------------------------------|
|-0-0-0-0-0-0-0-0-0-0-0-0-0-0-0-0-1-1-1-1-1-1-1-1-3-3-3-3-3-3-3-3-|
|-----------------------------------------------------------------| x3

|-----------------------|
|-----------------------|
|-----------------------|
|-7~~-8~~------7~~-8~~--|

Pre-Chorus 3 {2,16} :

|--------------------------------------|
|--------------------------------------|
|--------------------------------------|
|-7--8--8-8-8-8-8-8--7--8--8-8-8-8-8-8-|

Chorus 3 {2,21}

|-----------------------------------------------------------------|
|-----------------------------------------------------------------|
|-3-3-3-3-5-5-5-5-1-1-1-1---------3-3-3-3-5-5-5-5-1-1-1-1-8-8-8-8-|
|-------------------------3-3-3-3---------------------------------| x6

The End......
            
Submit corrections



        Insomnia lessons Hard to play? Try these video lessons and learn fast Insomnia lessons
        
↑ Back to top | Tablatures and chords for acoustic guitar and electric guitar, ukulele, drums are parodies/interpretations of the original songs. You may use it for private study, scholarship, research or language learning purposes only