Home » F » Feeder »

Feeder - Find The Colour Bass

Artists:  A B C D E F G H I J K L M N O P Q R S T U V W X Y Z # 

Find The Colour Bass

(ver. 1) Click to play this song!
Feeder
 Rating:
4/5 (4 votes)
                FIND THE COLOUR - FEEDER

I’m pretty sure this is right now.

Normal tuning


Verse Pattern
G|-------------------------------------------------------------------------|
D|-------------------------------------------------------------------------|
A|-------------------------------------------------------------------------|
E|-5-5-55-5-55-7-7-77-7-77-------------------------------------------------|

Chorus Pattern
G|-------------------------------------------------------------------------|
D|-------------------------------------------------------------------------|
A|-------------------------------------5-5-55-5-55-------------------------|
E|-5-5-55-5-55-7-7-77-7-77-3-3-33-3-33-------------------------------------|

G|-------------------------------------------------------------------------|
D|-------------------------------------------------------------------------|
A|-------------------------------------5-----------------------------------|
E|-5-5-55-5-55-7-7-77-7-77-3-3-33-3-33-------------------------------------|


Mid 8

G|----------------------------------------------------------------------------|
D|----------------------------------------------------------------------------|
A|-------------5-5-55-5-55----------------------------------------------------|
E|-3-3-33-3-33-------------5-5-55-5-55-3-3-33-3-33----------------------------|


Verse pattern X10
Chorus X1
Verse X6
Chorus X1
Break
Mid 8 X1
Chorus X1
Verse X4
Chorus X2
Guitar fades away at end
            
Submit corrections

↑ Back to top | Tablatures and chords for acoustic guitar and electric guitar, ukulele, drums are parodies/interpretations of the original songs. You may use it for private study, scholarship, research or language learning purposes only