» » »

Feeder - Buck Rogers Bass

Artists:  A B C D E F G H I J K L M N O P Q R S T U V W X Y Z # 

Buck Rogers Bass

(ver. 1) Click to play this song!
Feeder
 Rating:
4.3/5 (18 votes)

 Buck Rogers lessons Tabs too difficult? Try these video lessons and learn fast
 
                [Verse]

G|---------------------------------|
D|-------------------6-6-6-7-7-7-7-|
A|-7-7-7-7-7-7-7-7-7---------------|           x4         
E|---------------------------------|

Bridge (player/lemon)

G|--------------------------------|
D|--------------------------------|
A|--------------------------------|           x2       
E|-0-0-0-0-0-0-0-0-0-4-4-4-5-5-5-5|

                   
G|--------------------------------|
D|--------------------------------|
A|--------------------------------|               
E|-7-7-7-7-7-7-7-7-5--------0/12\0|

[Chorus]

G|---------------------------------------------------------------|
D|---------------------------------------------------------------|
A|---------------------------------------------------------------|
E|0-0-0-0-0-0-0-0-7-7-7-7-7-7-7-7-9-9-9-9-9-9-9-9-5-5-5-5-5-5-5-5|

G|---------------------------------------------------------------|
D|---------------------------------------------------------------|
A|---------------------------------------------------------------|
E|0-0-0-0-0-0-0-0-7-7-7-7-7-7-7-7-5-5-5-5-5-5-5-5-5-5-5-5-5-5-5-5|

Link

G|--------------------------------|
D|--------------------------------|
A|--------------------------------|           x2       
E|-0-0-0-0-0-0-0-0-0-4-4-4-5-5-5-5|

[Verse]

[Chorus 2]

Middle bit

G|--------------------------------|
D|--------------------------------|
A|--------------------------------|
E|2-2-2-2-2-4----5-5-5-5-8-8-8-8--|

G|--------------------------------|
D|--------------------------------|
A|--------------------------------|
E|2-2-2-2-2-4----5-5-5-5-5-5-5-5--|

G|--------------------------------|
D|--------------------------------|
A|--------------------------------|            x4
E|0-0-0-0-0-0-0-0-0-0-0-0-0-0-0-0-|

G|--------------------------------|
D|--------------------------------|
A|--------------------------------|            x2
E|-0-0-0-0-0-0-0-0-0-4-4-4-5-5-5-5|

[Chorus 2]

End

G|----------------------------|
D|----------------------------|
A|----------------------------|
E|-0-0-0-0-0-0-0-0-0-4-4-4-5-5|


            
Submit corrections


        Buck Rogers lessons Hard to play? Try these video lessons and learn fast Buck Rogers lessons
        
↑ Back to top | Tablatures and chords for acoustic guitar and electric guitar, ukulele, drums are parodies/interpretations of the original songs. You may use it for private study, scholarship, research or language learning purposes only