» » »

Feeder - Anaeshetic Tabs

Artists:  A B C D E F G H I J K L M N O P Q R S T U V W X Y Z # 

Anaeshetic Tabs

(ver. 1) Click to play this song!
Feeder
 Rating:
4/5 (4 votes)

 Anaeshetic lessons Tabs too difficult? Try these video lessons and learn fast
 
                
-=Intro=-

Clean
|-8-8-9-9-6-6-9-9----------|
|--------------------------|
|--------------------------|
|--------------------------|
|--------------------------|
|--------------------------|

-=Last Intro Riff=-

Clean
|-8-8-9-9-6-9-8-6-6--------|
|--------------------------|
|--------------------------|
|--------------------------|
|--------------------------|
|--------------------------|
|--------------------------|


-=Verse=-

Dist.
|---------------------------|
|---------------------------|
|---------------------------|
|-5-8---5-8---5-10-Let Ring-|
|-5-8---5-8---5-10<-------->|
|-3-6---3-6---3-8-----------|

-=Other Bit Of The Verse=-

This plays after it the verse riff.  It is played as the last chord subsides.

Dist.
<-Harmonic--->
|-8-8-8-8-7-6--------------|
|--------------------------|
|--------------------------|
|--------------------------|
|--------------------------|
|--------------------------|

The Harmonic bit is not played after the last verse riff before the chorus.  Also The last chord is palm muted. In the order Palm Mut Verse means do this.

-=Chorus=-

Clean
This is the same as the intro

I was kind of annoyed no one sent in tab for this great song so I've done it.

Here is the order
Intro X3
Last Intro Riff
Verse X11
Palm mute verse
I'm delirious!
Chorus X4
Verse X9
Palm mute verse
I'm delirious!
Chorus X6
Verse X3
Palm mute verse
I'm delerious!
Chorus about X20

I can't really tell the last amount of choruses as it fades away.
            
Submit corrections


        Anaeshetic lessons Hard to play? Try these video lessons and learn fast Anaeshetic lessons
        
↑ Back to top | Tablatures and chords for acoustic guitar and electric guitar, ukulele, drums are parodies/interpretations of the original songs. You may use it for private study, scholarship, research or language learning purposes only