Home » F » Fee Band »

Fee Band - God Is Alive Tabs

Artists:  A B C D E F G H I J K L M N O P Q R S T U V W X Y Z # 

God Is Alive Tabs

(ver. 1) Click to play this song!
Fee Band
 Rating:
2.2/5 (25 votes)
                Rhythm guitar
Intro
e|---------------------------------------------------------------------------|
B|444/9999-444/9999-444/9999-22332-5--444/9999-444/9999-444/9999-22332-555---|
G|xxx/xxxx-xxx/xxxx-xxx/xxxx-22222-6--xxx/xxxx-xxx/xxxx-xxx/xxxx-22222-666---|
D|444/9999-444/9999-444/9999-22222-6--444/9999-444/9999-444/9999-22222-666---|
A|222/7777-222/7777-222/7777-00000-4--222/7777-222/7777-222/7777-00000-444---|
E|---------------------------------------------------------------------------|

Verse 1
e|---------------------------------------------------------------------------|
B|-------------------------------------------------444/9999-444/9999---------|
G|4------------------------------------------------xxx/xxxx-xxx/xxxx---------|
D|4------------------------------------------------444/9999-444/9999---------|
A|2------------------------------------------------222/7777-222/7777---------|
E|---------------------------------------------------------------------------|

e|---------------------------------------------------------------------------|
B|-------------------------------------------------444/9999-44444444---------|
G|4------------------------------------------------xxx/xxxx-xxxxxxxx---------|
D|4------------------------------------------------444/9999-44444444---------|
A|2------------------------------------------------222/7777-22222222---------|
E|---------------------------------------------------------------------------|

Pre-chorus
e|---------------------------------------------------------------------------|
B|---------------------------------------------------------------------------|
G|9--------------------------------------------------------------------------|
D|9----------------4---------------------------------------------------------|
A|7----------------4---------------------------------------------------------|
E|-----------------2---------------------------------------------------------|

Chorus
e|---------------------------------------------------------------------------|
B|---------------------------------------------------------------------------|
G|4444444444444444-6666666666666666-2222222222222222-9999999999999999--------|
D|4444444444444444-6666666666666666-2222222222222222-9999999999999999--------|
A|2222222222222222-4444444444444444-0000000000000000-7777777777777777--------|
E|---------------------------------------------------------------------------|

e|---------------------------------------------------------------------------|
B|---------------------------------------------------------------------------|
G|4444444444444444-6666666666666666-2222222222222222-9999999999--------------|
D|4444444444444444-6666666666666666-2222222222222222-9999999999--------------|
A|2222222222222222-4444444444444444-0000000000000000-7777777777--------------|
E|---------------------------------------------------------------------------|

Interlude
e|---------------------------------------------------------------------------|
B|444/9999-444/9999-444/9999-22332-555---------------------------------------|
G|xxx/xxxx-xxx/xxxx-xxx/xxxx-22222-666---------------------------------------|
D|444/9999-444/9999-444/9999-22222-666---------------------------------------|
A|222/7777-222/7777-222/7777-00000-444---------------------------------------|
E|---------------------------------------------------------------------------|

Verse 2
e|---------------------------------------------------------------------------|
B|---------------------------------------------------------------------------|
G|4--------------------------------22222222-99999999-------------------------|
D|4--------------------------------22222222-99999999-------------------------|
A|2--------------------------------00000000-77777777-------------------------|
E|---------------------------------------------------------------------------|

e|---------------------------------------------------------------------------|
B|444/9999-44444444----------------------------------------------------------|
G|xxx/xxxx-xxxxxxxx----------------------------------------------------------|
D|444/9999-44444444----------------------------------------------------------|
A|222/7777-22222222----------------------------------------------------------|
E|---------------------------------------------------------------------------|

Pre-chorus

Chorus

Interlude 2x

Bridge
e|---------------------------------------------------------------------------|
B|---------------------------------------------------------------------------|
G|4--------------------------------------------------------4-----------------|
D|4--------------------------------------------------------4-----------------|
A|2--------------------------------------------------------2-----------------|
E|---------------------------------------------------------------------------|

e|---------------------------------------------------------------------------|
B|---------------------------------------------------------------------------|
G|4444444444444444-----------------------------------------------------------|
D|4444444444444444-----------------------------------------------------------|
A|2222222222222222-----------------------------------------------------------|
E|---------------------------------------------------------------------------|

Pre-chorus

Pre-chorus
e|---------------------------------------------------------------------------|
B|---------------------------------------------------------------------------|
G|---------------------------------------------------------------------------|
D|4444444444444444-----------------------------------------------------------|
A|4444444444444444-----------------------------------------------------------|
E|2222222222222222-----------------------------------------------------------|

Chorus
e|-------------------------------------------------------------------------------|
B|-------------------------------------------------------------------------------|
G|999-888-999-----x22------------------------------------------------------------|
D|999-888-999-x55-x22------------------------------------------------------------|
A|777-666-777-x55-x00------------------------------------------------------------|
E|------------x33----------------------------------------------------------------|

e|---------------------------------------------------------------------------|
B|---------------------------------------------------------------------------|
G|4444444444444444-6666666666666666-2222222222222222-99999999999999----------|
D|4444444444444444-6666666666666666-2222222222222222-99999999999999----------|
A|2222222222222222-4444444444444444-0000000000000000-77777777777777----------|
E|---------------------------------------------------------------------------|

Interlude 2x

Ending
e|---------------------------------------------------------------------------|
B|---------------------------------------------------------------------------|
G|4--------------------------------------------------------------------------|
D|4--------------------------------------------------------------------------|
A|2--------------------------------------------------------------------------|
E|---------------------------------------------------------------------------|            
Submit corrections

↑ Back to top | Tablatures and chords for acoustic guitar and electric guitar, ukulele, drums are parodies/interpretations of the original songs. You may use it for private study, scholarship, research or language learning purposes only