Home » F » Fats Domino »

Fats Domino - Blue Monday Bass

Artists:  A B C D E F G H I J K L M N O P Q R S T U V W X Y Z # 

Blue Monday Bass

(ver. 1) Click to play this song!
Fats Domino
Gtr I (E A D G) - 'Upright Bass'


 Intro         1st Verse
  Q=96(8=s8)
 4/4
  Gtr I
  Wx2           E E E E E E E E
|------------||-----------------|
|------------||-----------------|
|------------||-1-1-1-1---------|
|------------||---------3-3-1-1-|


  E E E E E E E E   E E E E E E E E   E E E E E E E E
|-----------------|-----------------|-----------------|
|---------3-3-0---|-1-1-------------|-----------------|
|-1-1-5-5-------1-|---------1-1---1-|-1-1-1-1---------|
|-----------------|-----3-3-----3---|---------3-3-1-1-|


  E E E E E E E E   E E E E E E E E   E E E E E E E E
|-----------------|-----------------|-----------------|
|-----0-0-3-3-0-3-|-----0-0-1-1-2-2-|-3-3-------------|
|-1-1-------------|-1-1-------------|-----0-0-3-3-0-3-|
|-----------------|-----------------|-----------------|


                     2nd & 3rd Verses
  E E E E E E E E     E E E E E E E E   E E E E E E E E
|-----------------||------------------|-----------------|
|-3-3-------------||o-----0-0-3-3-0-3-|-----0-0-3-3-0---|
|-----0-0-3-3-----||o-1-1-------------|-1-1-----------1-|
|-------------1-1-||------------------|-----------------|


  E E E E E E E E   E E E E E E E E   E E E E E E E E
|-----------------|-----------------|-----------------|
|-1-1-------------|-----------------|-----0-0-1-1-2-2-|
|---------1-1---1-|-1-1-1-1---------|-1-1-------------|
|-----3-3-----3---|---------3-3-1-1-|-----------------|


  E E E E E E E E   E E E E E E E E   E E E E E E E E
|-----------------|-----------------|-----------------||
|-3-3-------------|-----------------|-------------0-0-||
|-----0-0-3-3-0-3-|-1-1-1-1---------|-1-1-3-3-4-4-----||
|-----------------|---------3-3-1-1-|-----------------||


 Chorus
  E E E E E E E E   E E E E E E E E   E E E E E E E E
|-----------------|-----------------|-----------------|
|-1-1-------------|-2-2-------------|-----------------|
|---------1-1---1-|---------1-1---1-|-1-1-1-1---------|
|-----3-3-----3---|-----3-3-----3---|---------3-3-1-1-|


  E E E E E E E E   E E E E E E E E   E E E E E E E E
|-----------------|-----------------|-----------------|
|-----0-0-3-3-0---|-1-1-------------|-2-2-------------|
|-1-1-----------1-|---------1-1---1-|---------1-1---1-|
|-----------------|-----3-3-----3---|-----3-3-----3---|


  E E E E E E E E   E E E E E E E E   E E E E E E E E
|-----------------|-----------------|-----------------|
|-----0-0-1-1-2-2-|-3-3-1-1-0-0-----|-----------------|
|-3-3-------------|-------------3-3-|-1-1-1-1---------|
|-----------------|-----------------|---------3-3-1-1-|


  E E E E E E E E   E E E E E E E E   E E E E E E E E
|-----------------|-----------------|-----------------|
|-----0-0-3-3-0-3-|-1-1-------------|-----0-0-3-3-0-3-|
|-1-1-------------|---------1-1---1-|-1-1-------------|
|-----------------|-----3-3-----3---|-----------------|


                   1.
  E E E E E E E E   E E E E E E E E   E E E E E E E E
|-----------------|-----------------|-----------------|
|-----0-0-3-3---3-|-3-3-------------|-----0-0-3-3-0-3-|
|-1-1---------5---|-----0-0-3-3-0-3-|-1-1-------------|
|-----------------|-----------------|-----------------|


                                        Outro
                     2.                              H.=H
  E E E E E E E E     E E E E E E E E    E E Q  H      H    E Q.
|------------------||-----------------||-------------|--------------*|
|-3-3-------------o||-3-3-------------||-------------|--------------*|
|-----0-0-3-3-0-3-o||-----0-0-1-1-3-3-||-------------|--------1-----*|
|------------------||-----------------||-1-----------|--------------*|

            
Submit corrections

↑ Back to top | Tablatures and chords for acoustic guitar and electric guitar, ukulele, drums are parodies/interpretations of the original songs. You may use it for private study, scholarship, research or language learning purposes only