» » »

Fatboy Slim - Michael Jackson Tabs

Artists:  A B C D E F G H I J K L M N O P Q R S T U V W X Y Z # 

Michael Jackson Tabs

(ver. 1) Click to play this song!
Fatboy Slim
 Rating:
2.3/5 (23 votes)

 Michael Jackson  lessons Tabs too difficult? Try these video lessons and learn fast
 
                Riff A (0:00)

e------------|
b------------|
g------------|
d-------6-8--|
a------------|
e--6-6-------|



Riff B (0:16)

e-------------|
b-------------|
g-------------|
d--12b--10-8--|
a-------------|
e-------------|



Riff C (0:46)

e---------------------------|
b---------------------------|
g----10-7-8-----10-7-8--10--|
d-----8-5-6------8-5-6---8--|
a--8----------8-------------|
e---------------------------|



0:53 Riff A + Riff B 

1:08 Riff A

1:23 Riff A + Riff B

1:53 Riff C

2:08 Riff A + Riff B

2:38 Riff A is cut by scratches

2:53 Riff A is in background then fades in

4:08 Riff A + Riff B            
Submit corrections


        Michael Jackson  lessons Hard to play? Try these video lessons and learn fast Michael Jackson  lessons
        
↑ Back to top | Tablatures and chords for acoustic guitar and electric guitar, ukulele, drums are parodies/interpretations of the original songs. You may use it for private study, scholarship, research or language learning purposes only