» » »

Falling In Reverse - Paparazzi Tabs

Artists:  A B C D E F G H I J K L M N O P Q R S T U V W X Y Z # 

Paparazzi Tabs

(ver. 1) Click to play this song!
Falling In Reverse
 Rating:
4.4/5 (5 votes)

 Paparazzi  lessons Tabs too difficult? Try these video lessons and learn fast
 
                (Intro)
e|----------------------------------------------------------|
B|----------------------------------------------------------|
G|--8-8-10-12-10-8------8---8-8-10-12-10-8----------8-------|
D|-----------------10-8---------------------10-8-10---------|
A|----------------------------------------------------------|
E|----------------------------------------------------------|
   S E L L                 M Y             S O U L  

e|----------------------------------------------------------|
B|----------------------------------------------------------|
G|--8-8-10-12-10-8------8---8-8-10-12-10-8----------8-------|
D|-----------------10-8---------------------10-8-10---------|
A|----------------------------------------------------------|
E|----------------------------------------------------------|

e|----------------------------------------------------------|
B|----------------------------------------------------------|
G|----------------------------------------------------------|
D|--1-1---------------------1---6-6-------------------------|
A|--1-1---------------------1---6-6-------------------------|
D|--1-1---------------------1---6-6-------------------------|

e|----------------------------------------------------------|
B|----------------------------------------------------------|
G|--8-8-10-12-10-8------8---8-8-10-12-10-8--8-10-12-10-8----|
D|-----------------10-8-------------------------------------|
A|----------------------------------------------------------|
D|----------------------------------------------------------|

e|----------------------------------------------------------|
B|----------------------------------------------------------|
G|----------------------------------------------------------|
D|--6---10-10---------------10---8-8-------8-8-8-8-8--------|
A|--6---10-10---------------10---8-8-------8-8-8-8-8--------|
D|--6---10-10---------------10---8-8-------8-8-8-8-8--------|

e|----------------------------------------------------------|
B|----------------------------------------------------------|
G|--8-8-10-12-10-8------8---8-8-10-12-10-8----------8-------|
D|-----------------10-8---------------------10-8-10---------|
A|----------------------------------------------------------|
E|----------------------------------------------------------|

e|----------------------------------------------------------|
B|----------------------------------------------------------|
G|--8-8-10-12-10-8------8---8-8-10-12-10-8--8-10-12-10-8----|
D|-----------------10-8-------------------------------------|
A|----------------------------------------------------------|
D|----------------------------------------------------------|

(Verse)
e|-----------------------------------------------------------|
B|-----------------------------------------------------------|
G|--12----12-----15----15------------------------------------|
D|-----13----13-----13----13---------------------------------|
A|-----------------------------------------------------------|
E|-----------------------------------------------------------|
    NOW HERE'S ANOTHER SONG FOR ALL THE KIDS TO SING TO

e|-----------------------------------------------------------|
B|-----------------------------------------------------------|
G|--12----12------10-12-10-----------------------------------|
D|-----13----13-------------13-------------------------------|
A|-----------------------------------------------------------|
E|-----------------------------------------------------------|
   WITH THE SAME FOUR CHORDS JUST ANOTHER HIT SINGLE

e|-----------------------------------------------------------|
B|-----------------------------------------------------------|
G|--12----12-----15----15------------------------------------|
D|-----13----13-----13----13---------------------------------|
A|-----------------------------------------------------------|
E|-----------------------------------------------------------|
   EVERY RADIO STATION PLAYS THE SAME THREE TRACKS

e|-----------------------------------------------------------|
B|-----------------------------------------------------------|
G|--12----12------10-12-10-----------------------------------|
D|-----13----13-------------13-------------------------------|
A|-----------------------------------------------------------|
E|-----------------------------------------------------------|
    NINE TOTAL MINUTES I COULD NEVER GET BACK

e|-----------------------------------------------------------|
B|-----------------------------------------------------------|
G|--12----12-----15----15------------------------------------|
D|-----13----13-----13----13---------------------------------|
A|-----------------------------------------------------------|
E|-----------------------------------------------------------|
    SO GET UP GET UP COME ON COME ON

e|-----------------------------------------------------------|
B|-----------------------------------------------------------|
G|--12----12------10-12-10-----------------------------------|
D|-----13----13-------------13-------------------------------|
A|-----------------------------------------------------------|
E|-----------------------------------------------------------|
    WE DON'T PARTY YOU'RE THE SAME OLD SONG

e|-----------------------------------------------------------|
B|-----------------------------------------------------------|
G|--12----12-----15----15------------------------------------|
D|-----13----13-----13----13---------------------------------|
A|-----------------------------------------------------------|
E|-----------------------------------------------------------|
    SO DELETE YOUR PLAYLIST IF IT AIN'T THE GREATEST

e|-----------------------------------------------------------|
B|-----------------------------------------------------------|
G|--12----12------10-12-10-----------------------------------|
D|-----13----13-------------13-------------------------------|
A|-----------------------------------------------------------|
E|-----------------------------------------------------------|
    LET'S START SOMETHING CONTAGIOUS

e|-----------------------------------------------------------------|
B|-----------------------------------------------------------------|
G|-----------------------------------------------------------------|
D|--10----------------------8----------------6----------8----------|
A|--10----------------------8----------------6----------8----------|
E|--10----------------------8----------------6----------8----------|
    LA LA LA LA LA LA LA  I GUESS WE'RE DESPERATE FOR A RADIO HIT

(Chorus)
e|----------------------------------------------------------------------------------|
B|----------------------------------------------------------------------------------|
G|----------------------------------------------------------------------------------|
D|--1111-1111--6666-6666------------10-10-10-10--10-10-10-10--8888-8888-------------|
A|--1111-1111--6666-6666------------10-10-10-10--10-10-10-10--8888-8888-------------|
E|--1111-1111--6666-6666------------10-10-10-10--10-10-10-10--8888-8888-------------|
    PAPARAZZI  PLEASE SNAP SHOT ME  I'M JUST A BAD BOY        MEANT FOR THE TABLOIDS

e|----------------------------------------------------------------------------------|
B|----------------------------------------------------------------------------------|
G|----------------------------------------------------------------------------------|
D|--1111-1111--6666-6666----10-10-10-10--10-10-10-10--88----------------------------|
A|--1111-1111--6666-6666----10-10-10-10--10-10-10-10--88----------------------------|
E|--1111-1111--6666-6666----10-10-10-10--10-10-10-10--88----------------------------|
    I NEED MY  BEFORE IT'S  CAUSE I'M A LITTLE BIT    JUST WANNA BE FAMOUS
    BIG BREAK  TOO LATE     SHAMELESS

e|----------------------------------------------------------|
B|----------------------------------------------------------|
G|--8-8-10-12-10-8------8---8-8-10-12-10-8----------8-------|
D|-----------------10-8---------------------10-8-10---------|
A|----------------------------------------------------------|
E|----------------------------------------------------------|

e|----------------------------------------------------------|
B|----------------------------------------------------------|
G|----------------------------------------------------------|
D|--1-1---------------------1---6-6-------------------------|
A|--1-1---------------------1---6-6-------------------------|
D|--1-1---------------------1---6-6-------------------------|

e|----------------------------------------------------------|
B|----------------------------------------------------------|
G|--8-8-10-12-10-8------8---8-8-10-12-10-8--8-10-12-10-8----|
D|-----------------10-8-------------------------------------|
A|----------------------------------------------------------|
D|----------------------------------------------------------|

e|----------------------------------------------------------|
B|----------------------------------------------------------|
G|----------------------------------------------------------|
D|--6---10-10---------------10---8-8-------8-8-8-8-8--------|
A|--6---10-10---------------10---8-8-------8-8-8-8-8--------|
D|--6---10-10---------------10---8-8-------8-8-8-8-8--------|

(Verse)
e|-----------------------------------------------------------|
B|-----------------------------------------------------------|
G|--12----12-----15----15------------------------------------|
D|-----13----13-----13----13---------------------------------|
A|-----------------------------------------------------------|
E|-----------------------------------------------------------|
    NOW WE'RE STEADY MAKING PROFITS AND IT'S HARD TO STOP IT

e|-----------------------------------------------------------|
B|-----------------------------------------------------------|
G|--12----12------10-12-10-----------------------------------|
D|-----13----13-------------13-------------------------------|
A|-----------------------------------------------------------|
E|-----------------------------------------------------------|
    WE GOT OUR T-SHIRT IN THE MALLS HOT TOPIC

e|-----------------------------------------------------------|
B|-----------------------------------------------------------|
G|--12----12-----15----15------------------------------------|
D|-----13----13-----13----13---------------------------------|
A|-----------------------------------------------------------|
E|-----------------------------------------------------------|
    WARP TOUR FAMOUS AND THE FANS DEVOTION

e|-----------------------------------------------------------|
B|-----------------------------------------------------------|
G|--12----12------10-12-10-----------------------------------|
D|-----13----13-------------13-------------------------------|
A|-----------------------------------------------------------|
E|-----------------------------------------------------------|
    LOCK THE DOORS AND IT'S LIKE WE'RE IN SLOW MOTION

e|-----------------------------------------------------------|
B|-----------------------------------------------------------|
G|--12----12-----15----15------------------------------------|
D|-----13----13-----13----13---------------------------------|
A|-----------------------------------------------------------|
E|-----------------------------------------------------------|
    SO GET UP GET UP COME ON COME ON

e|-----------------------------------------------------------|
B|-----------------------------------------------------------|
G|--12----12------10-12-10-----------------------------------|
D|-----13----13-------------13-------------------------------|
A|-----------------------------------------------------------|
E|-----------------------------------------------------------|
    WE FINALLY GOT WHAT WE f**kING WANT

e|-----------------------------------------------------------|
B|-----------------------------------------------------------|
G|--12----12-----15----15------------------------------------|
D|-----13----13-----13----13---------------------------------|
A|-----------------------------------------------------------|
E|-----------------------------------------------------------|
    SO DELETE YOUR PLAYLIST IF IT AIN'T THE GREATEST

e|-----------------------------------------------------------|
B|-----------------------------------------------------------|
G|--12----12------10-12-10-----------------------------------|
D|-----13----13-------------13-------------------------------|
A|-----------------------------------------------------------|
E|-----------------------------------------------------------|
    LET'S START SOMETHING CONTAGIOUS

e|----------------------------------------------------------------|
B|----------------------------------------------------------------|
G|----------------------------------------------------------------|
D|--10---------------------8----------------6----------8----------|
A|--10---------------------8----------------6----------8----------|
E|--10---------------------8----------------6----------8----------|
    LA LA LA LALA LA LA  I GUESS WE'RE DESPERATE FOR A RADIO HIT

(Chorus)
e|----------------------------------------------------------------------------------|
B|----------------------------------------------------------------------------------|
G|----------------------------------------------------------------------------------|
D|--1111-1111--6666-6666------------10-10-10-10--10-10-10-10--8888-8888-------------|
A|--1111-1111--6666-6666------------10-10-10-10--10-10-10-10--8888-8888-------------|
E|--1111-1111--6666-6666------------10-10-10-10--10-10-10-10--8888-8888-------------|
    PAPARAZZI  PLEASE SNAP SHOT ME  I'M JUST A BAD BOY        MEANT FOR THE TABLOIDS

e|----------------------------------------------------------------------------------|
B|----------------------------------------------------------------------------------|
G|----------------------------------------------------------------------------------|
D|--1111-1111--6666-6666----10-10-10-10--10-10-10-10--8888-8888---------------------|
A|--1111-1111--6666-6666----10-10-10-10--10-10-10-10--8888-8888---------------------|
E|--1111-1111--6666-6666----10-10-10-10--10-10-10-10--8888-8888---------------------|
    I NEED MY  BEFORE IT'S  CAUSE I'M A LITTLE BIT    JUST WANNA BE FAMOUS
    BIG BREAK  TOO LATE     SHAMELESS

(Bridge)
e|----------------------------------------------------------------------------------|
B|----------------------------------------------------------------------------------|
G|----------------------------------------------------------------------------------|
D|--10-10-10-10--10-10-10-10---8888-8888---------6666-6666--------88-X-6/88---------|
A|--10-10-10-10--10-10-10-10---8888-8888---------6666-6666--------88-X-6/88---------|
E|--10-10-10-10--10-10-10-10---8888-8888---------6666-6666--------88-X-6/88---------|
   THE FUTURE SUCKS           WE WATCH REALITY  AND NEVER LEAVE  WE'RE GLUED TO
   AS WE KNOW                 SHOWS             OUR HOMES        OUR PHONES

e|----------------------------------------------------------------------------------|
B|----------------------------------------------------------------------------------|
G|----------------------------------------------------------------------------------|
D|--10-10-10-10--10-10-10-10---8888-8888---------6666-6666--------88-X-88----------|
A|--10-10-10-10--10-10-10-10---8888-8888---------6666-6666--------88-X-88----------|
E|--10-10-10-10--10-10-10-10---8888-8888---------6666-6666--------88-X-88----------|
    THE FUTURES MAKING ME      WE POST THE       WHAT THE f**kS   WE'RE ALWAYS
    SICK                       SAME DAMN PICS    A SELFIE STICK   TALKING sh*t

e|-------------------------------|
B|-------------------------------|
G|-------------------------------|
D|--1----------------------------|
A|--1----------------------------|
E|--1----------------------------|
   S E L L   M Y   S O U L 

(Interlude)
e|----------------------------------------------------------------------------------|
B|----------------------------------------------------------------------------------|
G|----------------------------------------------------------------------------------|
D|--1111-1111--6666-6666----10-10-10-10--10-10-10-10--8888-8888---------------------|
A|--1111-1111--6666-6666----10-10-10-10--10-10-10-10--8888-8888---------------------|
E|--1111-1111--6666-6666----10-10-10-10--10-10-10-10--8888-8888---------------------|
    I'M             SHAME                   LESS FOR  YOU

e|----------------------------------------------------------------------------------|
B|----------------------------------------------------------------------------------|
G|----------------------------------------------------------------------------------|
D|--1111-1111--6666-6666----10-10-10-10--10-10-10-10--8888-8888---------------------|
A|--1111-1111--6666-6666----10-10-10-10--10-10-10-10--8888-8888---------------------|
E|--1111-1111--6666-6666----10-10-10-10--10-10-10-10--8888-8888---------------------|
   I            WANT TO    BE                        FAMOUS

e|----------------------------------------------------------------------------------|
B|----------------------------------------------------------------------------------|
G|----------------------------------------------------------------------------------|
D|--1111-1111--6666-6666----10-10-10-10--10-10-10-10--8888-8888---------------------|
A|--1111-1111--6666-6666----10-10-10-10--10-10-10-10--8888-8888---------------------|
E|--1111-1111--6666-6666----10-10-10-10--10-10-10-10--8888-8888---------------------|
    I'M             SHAME                   LESS FOR  YOU

e|----------------------------------------------------------------------------------|
B|----------------------------------------------------------------------------------|
G|----------------------------------------------------------------------------------|
D|--1111-1111--6666-6666----10-10-10-10--10-10-10-10--8888-8888---------------------|
A|--1111-1111--6666-6666----10-10-10-10--10-10-10-10--8888-8888---------------------|
E|--1111-1111--6666-6666----10-10-10-10--10-10-10-10--8888-8888---------------------|
    I            WANT TO    BE                        FAMOUS

(Chorus)
e|----------------------------------------------------------------------------------|
B|----------------------------------------------------------------------------------|
G|----------------------------------------------------------------------------------|
D|--1111-1111--6666-6666------------10-10-10-10--10-10-10-10--8888-8888-------------|
A|--1111-1111--6666-6666------------10-10-10-10--10-10-10-10--8888-8888-------------|
E|--1111-1111--6666-6666------------10-10-10-10--10-10-10-10--8888-8888-------------|
    PAPARAZZI  PLEASE SNAP SHOT ME  I'M JUST A BAD BOY        MEANT FOR THE TABLOIDS

e|----------------------------------------------------------------------------------|
B|----------------------------------------------------------------------------------|
G|----------------------------------------------------------------------------------|
D|--1111-1111--6666-6666----10-10-10-10--10-10-10-10--8888-8888---------------------|
A|--1111-1111--6666-6666----10-10-10-10--10-10-10-10--8888-8888---------------------|
E|--1111-1111--6666-6666----10-10-10-10--10-10-10-10--8888-8888---------------------|
   I NEED MY  BEFORE IT'S  CAUSE I'M A LITTLE BIT    JUST WANNA BE FAMOUS
   BIG BREAK  TOO LATE     SHAMELESS

(Outro)
e|----------------------------------------------------------|
B|----------------------------------------------------------|
G|--8-8-10-12-10-8------8---8-8-10-12-10-8----------8-------|
D|-----------------10-8---------------------10-8-10---------|
A|----------------------------------------------------------|
E|----------------------------------------------------------|
                                           SHAMELESS

e|----------------------------------------------------------|
B|----------------------------------------------------------|
G|--8-8-10-12-10-8------8---8-8-10-12-10-8--8-10-12-10-8----|
D|-----------------10-8-------------------------------------|
A|----------------------------------------------------------|
D|----------------------------------------------------------|
                          I JUST WANNA BE FAMOUS

e|----------------------------------------------------------|
B|----------------------------------------------------------|
G|--8-8-10-12-10-8------8---8-8-10-12-10-8----------8-------|
D|-----------------10-8---------------------10-8-10---------|
A|----------------------------------------------------------|
E|----------------------------------------------------------|

e|----------------------------------------------------------------|
B|----------------------------------------------------------------|
G|--8-8-10-12-10-8------8---8-8-10-12-10-8--8-10-12-10-8----------|
D|-----------------10-8-------------------------------------1-----|
A|----------------------------------------------------------1-----|
D|----------------------------------------------------------1-----|            
Submit corrections


        Paparazzi  lessons Hard to play? Try these video lessons and learn fast Paparazzi  lessons
        
↑ Back to top | Tablatures and chords for acoustic guitar and electric guitar, ukulele, drums are parodies/interpretations of the original songs. You may use it for private study, scholarship, research or language learning purposes only