» » »

Falling In Reverse - Get Me Out Tabs

Artists:  A B C D E F G H I J K L M N O P Q R S T U V W X Y Z # 

Get Me Out Tabs

(ver. 1) Click to play this song!
Falling In Reverse
 Rating:
4/5 (4 votes)

 Get Me Out  lessons Tabs too difficult? Try these video lessons and learn fast
 
                Verse

--------------------------------------|
--------------------------------------|
--------------------------------------|
55--5-55--------22--2--22-------------|
55--5-55--x2----22--2--22--X2---------|
55--5-55--------22--2--22-------------|
**  * **        **  *  **

Take off the PM when after the gunshot sound effect

Chorus

-------------------------------------|
-------------------------------------|
------------5------7-----------------|
5-----2-----5-x8---7-x8--------------|X2
5-X8--2-x8--3------5-----------------|
5-----2------------------------------|

So sick and tired...

-------------------------------------|
-------------------------------------|
5------7-----4-----7-----------------|
5-x8---7-x8--4-x8--7-x8--------------|
3------5-----2-----5-----------------|
-------------------------------------|

You do that one one once and then go back to the first one


I don't know the solo but i'm working on it


Breakdown

--------------------------------------------|
--------------------------------------------|
--------------------------------------------|
--------------------------------------------|
555--55-55--x2--000 00 00--x2---------------|
555--55 55------000 00 00-------------------|
***  ** **      *** ** **

-----------------------------------------------|
-----------------------------------------------|
----6-------6-8----------4-------4-6-----------|
----x-------x-x----------x-------x-x-----------|
555-4-55-55-4-6--x2--000-2-00-00-2-4--x2-------|
555 --55-55----------000---00-00---------------|
***   ** **          ***   ** **

Final OMG

--------------------------------------------|
--------------------------------------------|
--------------------------------------------|
3-----5----7----9----10---------------------|
3-x8--5-x8-7-x8-9-x8-10-x4------------------|
3-----5----7----9----10---------------------|
*     *    *    *            
Submit corrections


        Get Me Out  lessons Hard to play? Try these video lessons and learn fast Get Me Out  lessons
        
↑ Back to top | Tablatures and chords for acoustic guitar and electric guitar, ukulele, drums are parodies/interpretations of the original songs. You may use it for private study, scholarship, research or language learning purposes only